rock
 
|tablatures   |lyrics   |discussion forums   |more tabs @ XGuitar.com

Iron Maiden tabs

Sea Of Madness bass tab

Here is the bass solo

G|-------------------------------------9---11---9---11--13-11-9----------------|
D|--11--13-14-----------14-13-11-9---9---9----9---9-------------11-------------|
A|-------------11-13-----------------------------------------------------------|
E|---------------------------------------------------------------------------|

G|-------------------------------------9---11---9---11---9---11---11-----------|
D|--11--13-14-----------14-13-11-9---9---9----9---9----9---9----9----11--------|
A|-------------11-13-----------------------------------------------------------|
E|---------------------------------------------------------------------------|
  development and support by
dmitry ivanov