rock
 
|tablatures   |lyrics   |discussion forums   |more tabs @ XGuitar.com

Iron Maiden tabs

Sanctuary bass tab

Song: Sanctuary
 Band: Iron Maiden
 Album: Iron Maiden
 Transcribed by: Amaury Espinal (powerslave25@hotmail.com)
 Date: 19/11/2003



    (0:04)                             (0:09)enter lyrics "Out of winter...
 G---------------------5777---------------------------------------------------------
 D-----------------5-7-------5-7-5--------------------------------------------------
 A-r-5555-0-5555-0-----------------7-5-5555-0-5555-0-5555-0-5555-0-5555-0-5555-0----
 E----------------------------------------------------------------------------------
 
                 (0:17)                 "So now i've...  (0:32)
 G------------------------------------------------------5---7-----------------------
 D--------------------5555--------------------5555---r-5-5-5-5 5--------------------
 A-5555-0-5555-0-7777------5555-0-5555-0-7777--------------------5555-0-5555-0------
 E-------------------------------------------------5--------------------------------

   (0:35)                  (0:37)"I met up whith a...
 G-----7--- 5-----------------------------------------------------------------------
 D-55 7-7--5-5-7-5------------------------------------------------------------------
 A-----------------7-5-----5555-0-5555-0-5555-0-5555-0-5555-0-5555-0-5555-0-5555-0--
 E---------------------7-5----------------------------------------------------------

  (0:45)                               (0:57) Chorus: "So give me Sanctuary from...
 G-----------------------------------------------------------7----------7-----------
 D------5555--------------------5555---r-7--7--7--5--5--5--7--7-5---5-5--5----------
 A-7777------5555-0-5555-0-7777------5----7--7-----5--5----------7------------------
 E----------------------------------------------------------------------------------

  (1:01)                              (1:05) "tonight...          (1:12) Guitar Solo
 G---------------------7----------7--------------------------------------------------
 D-7--7--7--5--5--5--7--7-5---5-5--5-------------------------------------------------
 A--7--7-----5--5----------7----------7-5-7-55575-5-3-5-33353---r-5555-0-5555-0------
 E------------------------------------------------------------5----------------------
      
                                    (1:19)                            (1:23)
 G----------------------------------------7----5--------------------------5-777-7-5----------
 D-------------------------3----3---5-7-5--7-55-5-----------3-----3---5-7-----------7-5------
 A-5555-0-5555-0-5555-0-55--5-55-5----------------5555-0-55--5-55--5--------------------7-5--
 E-------------------------------------------------------------------------------------------

                              (1:30)
 G-----------------------------------------------------------------------------------
 D----------------------------------5555--------------------5555---------------------
 A-5555-0-5555-0-5555-0-5555-0-7777------5555-0-5555-0-7777------5555-0-5555-0-------
 E-----------------------------------------------------------------------------------

  (1:38)                                   (1:42)
 G-----5 777-5 77777-5h777-5h777-5-7-5-----------------------------------------------
 D-5 7---------------------------------7-5-------------------------------------------
 A------------------------------------------5555-5555-3333-5555-5555-5555-3333-5555--
 E-----------------------------------------------------------------------------------

  (1:50)                                          (1:58)
 G-----------------------------------------------------------------------------------
 D----------------------------------------------------------3h5----------------------
 A-3-3-3-5-5-5-3-3-3-5-5-5-3-3-3-5-5-5-3-3-3-5-5-5-33-55-33-----55-33-55-33-55-------
 E-----------------------------------------------------------------------------------
 
                                         (2:22)                   (2:25)
 G-----------------------------------------7-9-7----------------------5777------------
 D------5555--------------------5555----r-7-----9-7---------------5-7------5-7-5------
 A-7777------5555-0-5555-0-7777---------------------5555-0-5555-0----------------7-5--
 E-----------------------------------5------------------------------------------------

   (2:27) Lyrics   (2:36)                                (2:47) Chorus
 G-|---------|----|-----------------------------------------------------------7---------7---
 D-|---------|-X 8|------5555--------------------5555---r-7--7--7--5--5--5--7--7-5---5-5-5--
 A-|-5555-0--|----|-7777------5555-0-5555-0-7777-----------7--7-----5--5-----------7--------
 E-|---------|----|-----------------------------------5-------------------------------------

  (2:51)                              (2:57)"tonight...           (3:02) outro
 G---------------------7-----------7--------------------------------------------------
 D-7--7--7--5--5--5--7--7-5----5-5--5-------------------------------------------------
 A--7--7-----5--5-----------7----------7-5-7-55575-5-3-5-33353---r-5555-0-5555-0------
 E-------------------------------------------------------------5----------------------
          
                                   (3:10)
 G------------------------------------------
 D-------------------------------------.----
 A-5555-0-5555-0-55550-5555-0-55550-5555----
 E------------------------------------------


 Any comments or corrections, email me: powerslave25@hotmail.com
 Dedicada a todos los fans de Iron Maiden en la Republica Dominicana
 y en todo el mundo.
  development and support by
dmitry ivanov