rock
 
|tablatures   |lyrics   |discussion forums   |more tabs @ XGuitar.com

Iron Maiden tabs

Run To The Hills bass tab

 Run to the Hills ( Harris )
 ( From the album " The Number of the Beast " )      



         Drums enter                                                            
G----------------------||---9--9--7-----7--7--9-----5--5--7--------------||
D----------------------||*--------------------------------------5--5--7-*||
A----------------------||*----------------------------------------------*||
E----------------------||------------------------------------------------||
                                                                                
                                      5 times (At 2nd time lyrics enters)                                                       
"***" ^   
G||--------------------------------------------------------------------------
D||*-------------------------------------------------------------------------
A||*5-555-555-555-555-555-555-555-555-555-555-555-555-555-555-555-555-333-333
E||--------------------------------------------------------------------------
                                                                                
                                     "Running through...
                          ^          "Soldier blue...                                            
G----------------------||----------------------------------------------------
D---------------------*||----------------------------------------------------
A333-333--3--2--3--2--*||------------------333-333-333-333-----------------55
E----------------------||-555-555-555-555------------------111-111-111-111---
                                                                                
               2 times     "Murder for freedom...
                           "Selling them...
                                           
                                           ^                                     
G--------------------------------------||---------------------------------------
D--------------------------------------||*--------------------------------------
A5-555-555-555-555-555-555-555-555-555-||*--------------------------------------
E--------------------------------------||--333-333-333-333-333-333-333-333-11
                                                                                
                                          (chorus) "Run to the...                              
                                                                                
G----------------------------------------------------------------------------
D----------------------------------------------------------------------------
A-------------------3-----3-3-333-333-333-333-333-222-222--------------------
E1-111-111-111--1-1---1-1---------------------------------333-333-333-333--3-

       "!!!"     ^
G------------||--------------------------------------------------------------
D-----------*||*-----------------4-5-555-555-555-----------------------------
A-----------*||*-777-777-777-777-----------------333-333-333-333-3-2-3-2-3-2-
E-0--1--2--3-||--------------------------------------------------------------                                                               
                 solo
 2 times       
(Then repeat from "***"
to "!!!", then solo)
          ^                ^                 ^                        ^
G---||-----------------------------------------------------------------------
D--*||*-7-777-9p7-7-9p7--5-555-7p5-5-7p5--10-101010-12p10-10-12p10-12-121212-
A3-*||*----------------------------------------------------------------------
E---||-----------------------------------------------------------------------

4 times
                      ^                  ^                        ^
G----------------||-9-999-10p9-9-10p9-10-101010-12p10-10-12p10-12-121212-14p
D14p12-12-14p12-*||---------------------------------------------------------
A---------------*||---------------------------------------------------------
E----------------||---------------------------------------------------------
     
          3 times
                ^      ^      ^      ^
G12-12-14p12-14-161616-161616-161616-161616------||
D------------------------------------------------|| Then repeat chorus
A------------------------------------------------|| up to the end.
E-------------------------------------------12\--||

    
    Dedicada a todos los IRON MAIDEN fans alrededor del mundo, especialmente
    los Chilenos (BRIAN).
    (Dedicated to all IRON MAIDEN fans all over world, specially from Chile.)                                 
    
                                UP THE IRONS!


  development and support by
dmitry ivanov