rock
 
|tablatures   |lyrics   |discussion forums   |more tabs @ XGuitar.com

Iron Maiden tabs

Run Silent Run Deep bass tab

RUN SILENT RUN DEEP
(Harris / Dickinson)
(NO PRAYER FOR THE DYING)
BASS TAB BY endemicbass666

-----------------------------------------------------------------

slow guitar intro

then :

G---------------
D--5--4---------
A---------------
E---------------

Verse:

G-----------------------|-------------------------------|
D-------------3---------|-------------------------------|
A---7--7--7-------5--7--|-------------------------------|
E-----------------------|--0--0-0-0--0-0-0--0-0-0--0-0--|

G-----------------------|------------------------------------------------------|
D------------3--5-------|------------------------------------------------------|
A--7--7--7-----------7--|--5--5--5---5--5-5-5--5-5-5--5-5-5--5-5-5--5-5-5--5-5-|
E-----------------------|------------------------------------------------------|

G-----------------------------------------------------------|
D--------------------------------------------------5--------|
A--2--2--2--2--2-2-2--2-2-2--2-2-2--2-2-2------5-7---7-5----|
E------------------------------------------5-7-----------7--|

G----------------------|-------------------------------|
D-----------3----------|-------------------------------|
A--7--7--7-------5--7--|-------------------------------|
E----------------------|--0--0-0-0--0-0-0--0-0-0--0-0--|


G-----------------------|------------------------------------------------------|
D------------3--5-------|------------------------------------------------------|
A--7--7--7-----------7--|--5--5--5---5--5-5-5--5-5-5--5-5-5--5-5-5--5-5-5--5-5-|
E-----------------------|------------------------------------------------------|

G-------------------------------------------------------|
D-------------------------------------------------------|
A--4--4--4---4--4-4-4--4-4-4--4-4-4--4-4-4--4-4-4--4-4--|
E-------------------------------------------------------|

Chorus:

G--9---------------7----------------4--------------5---7----|
D--9---------------7----------------4--------------5---7----|
A--7-7-7-7-7-7-----5-5-5-5-5-5------2-2-2-2-2-2----3---5----|
E-----------------------------------------------------------|

G--9---------------7----------------4-----------------------|
D--9---------------7----------------4---------------5---7---|
A--7-7-7-7-7-7-----5-5-5-5-5-5------2-2-2-2-2-2-----5---7---|
E---------------------------------------------------3---5---|


G--9---------------7----------------4--------------5---7----|
D--9---------------7----------------4--------------5---7----|
A--7-7-7-7-7-7-----5-5-5-5-5-5------2-2-2-2-2-2----3---5----|
E-----------------------------------------------------------|

G--9---------------7----------------4-----------------------|
D--9---------------7----------------4--------------5---7----|
A--7-7-7-7-7-7-----5-5-5-5-5-5------2-2-2-2-2-2----5---7----|
E--------------------------------------------------3---5----|


repeat verse part

repeat chorus part


interlude:

G--------------------------------------------------------|
D--------------------------------------------------------|
A-----5t--7t-7t-7t-7t--5t-7t-3t-5t-3t--------------------|
E--7t---------------------------------7t-7t-7t-7t--------|

						(t=fast triplets)

guitar solo 1:

G-----------------------------------------------------------------|
D----------------------------------------------------------4-2----|
A--------------------------------------------------------------4--|
E--0---2-2-2-2-2---0---3-3-3-3-3---0---2-2-2-2-2---0---0-0--------|


guitar solo 2:

G--------------------------------------------------------------------|
D--------------------------------------------------------------------|
A--0-0-0-0-0-0---1-1-1-1-1-1-1----------------------0-0-0-0-0-0------|
E--------------------------------3-3-3-3-3-3-3-----------------------|


guitar solo 3:

G---------------------------------------------------------------------|
D--5-------------9--------------5--------------7----------------------|
A--3-3-3-3-3-3---7-7-7-7-7-7-7--3-3-3-3-3-3-3--5-5-5-5-5-5-5----------|
E---------------------------------------------------------------------|


repeat verse part

repeat chorus part

repeat interlude part


final riff:

G------------------7----------------4--------------5---7----|
D--2---------------7----------------4--------------5---7----|
A--2---------------5----------------2--------------3---5----|
E--0--------------------------------------------------------|

G------------------7----------------4--------------10---2------------|
D--2---------------7----------------4--------------10---2-------2----|
A--2---------------5----------------2--------------8----0-------2----|
E--0------------------------------------------------------------0----|



TABBED BY endemicbass666

up the irons ! !
  development and support by
dmitry ivanov