rock
 
|tablatures   |lyrics   |discussion forums   |more tabs @ XGuitar.com

Iron Maiden tabs

RainMaker bass tab

Iron Maiden - Rainmaker

Intro:

G:-7------3------7------3------7------3------7-7-|
D:-7------3------7------3------7------3------7-7-|
A:-5-5t5t-1-1t1t-5-5t5t-1-1t1t-5-5t5t-1-1t1t-5-5-|
E:-----------------------------------------------|

Verse: When I was wandering...

G:-7------3------10-----5------|
D:-7------3------10-----5------|
A:-5-5t5t-1-1t1t-8-8t8t-3-3t3t-| x3
E:-----------------------------|

Verse ending: I turned my face...

G:-3---------------5-------------|
D:-3---------------5-------------|
A:-1-1-1-1-1-1-1-1-3-3-3-3-3-3-3-|
E:-------------------------------|

Pre-Chorus: And I know of the pain...

G:-7-----5------3------5------7------3------5------5----|
D:-7-----3-3t3t-3------5------7------3------3-3t3t-5----|
A:-5-5t5t-------1-1t1t-3-3t3t-5-5t5t-1-1t1t--------3t3t-| x 2
E:------------------------------------------------------|

Chorus: You tell me we can start the rain...

G:-7------7------7------7------3------3-----10------3------|
D:-7------7------7------7------3------3-----10------5------|
A:-5-5t5t-5-5t5t-5-5t5t-5-5t5t-1-1t1t-1-1t1t-8-8t8t-3-3t3t-| x 2
E:---------------------------------------------------------| 

Pre-Chorus: And I know of the pain...

Chorus: You tell me we can start the rain...

Solo 1.

G:-7------3------5-----5-7--7------3------5------|
D:-7------3------5-----3-5--7------3------5------|
A:-5-5t5t-1-1t1t-3-3t3t-----5-5t5t-1-1t1t-3-3t3t-| x 2
E:-----------------------------------------------| 

Solo 2.

G:-9------5------7-----7-9--9------5------7------|
D:-9------5------7-----5-7--9------5------7------|
A:-7-7t7t-3-3t3t-5-5t5t-----7-7t7t-3-3t3t-5-5t5t-| x 2
E:-----------------------------------------------|

Chorus: You tell me we can start the rain...

Pre-Chorus: And I know of the pain...

Ending:

G:-7------3------7------3------7------3------7-7-7-7-7-|
D:-7------3------7------3------7------3------7-7-7-7-7-|
A:-5-5t5t-1-1t1t-5-5t5t-1-1t1t-5-5t5t-1-1t1t-5-5-5-5-5-|
E:-----------------------------------------------------|
  development and support by
dmitry ivanov