rock
 
|tablatures   |lyrics   |discussion forums   |more tabs @ XGuitar.com

Iron Maiden tabs

Quest For Fire guitar tab

                            Quest For Fire                               


                                                              Iron Maiden
Tabbed By John Twynam
wratchild@geocities.com


This is the intro (one guitar plays this):
                                                                    
E||---------------------------|------------------------------------|
B||---------------------------|------------------------------------|
G||---------------------------|----------------6--6--6--6--6----7--|
D||------------------------9--|--9--9--9--9----4--4--4--4--4----5--|
A||------------------------7--|--7--7--7--7------------------------|
E||---------------------------|------------------------------------|
                                       
--------------------------------------|
--------------------------------------|
--7--7--7--7----9--9--9--9--11----11--|
--5--5--5--5----7--7--7--7--9-----9---|
--------------------------------------|
--------------------------------------|
                                     
------------------------------------|
------------------------------------|
--9--9--9--7----6--6--6--6--7-------|
--7--7--7--5----4--4--4--4--5----5--|
---------------------------------3--|
------------------------------------|
                                      
-------------------------------------|
-------------------------------------|
-------------------------------------|
--5--5--5--5--7--7--7--7--7--9----9--|
--3--3--3--3--5--5--5--5--5--7----7--|
-------------------------------------|
                                     
------------------------------------|
------------------------------------|
----------------6--6--6--6--6----7--|
--9--9--9--9----4--4--4--4--4----5--|
--7--7--7--7------------------------|
------------------------------------|
                                       
--------------------------------------|
--------------------------------------|
--7--7--7--7----9--9--9--9--11----11--|
--5--5--5--5----7--7--7--7--9-----9---|
--------------------------------------|
--------------------------------------|
                                                                   
------------------------------------|-----------------------------|
------------------------------------|-----------------------------|
--9--9--9--7----6--6--6--6--7-------|-----------------------------|
--7--7--7--5----4--4--4--4--5----5--|--5--5--5--5--7--7--7--7--7--|
---------------------------------3--|--3--3--3--3--5--5--5--5--5--|
------------------------------------|-----------------------------|

The other guitar plays this during the intro:

E||---------------------------|------------------------------------|
B||---------------------------|------------------------------------|
G||---------------------------|---------------------------------4--|
D||------------------------5--|--5--5--5--5----7--7--7--7--7-------|
A||---------------------------|------------------------------------|
E||---------------------------|------------------------------------|


                                                                          
------------------------------------|------------------------------------|
------------------------------------|------------------------------------|
--4--4--4--4----5--5--5--5--7----7--|--5--5--5--4----2--2--2--2--4-------|
------------------------------------|---------------------------------2--|
------------------------------------|------------------------------------|
------------------------------------|------------------------------------|


                                                                           
-------------------------------------|------------------------------------|
-------------------------------------|------------------------------------|
-------------------------------------|---------------------------------4--|
--2--2--2--2--4--4--4--4--4--5----5--|--5--5--5--5----7--7--7--7--7-------|
-------------------------------------|------------------------------------|
-------------------------------------|------------------------------------|


                                                                          
------------------------------------|------------------------------------|
------------------------------------|------------------------------------|
--4--4--4--4----5--5--5--5--7----7--|--5--5--5--4----2--2--2--2--4-------|
------------------------------------|---------------------------------2--|
------------------------------------|------------------------------------|
------------------------------------|------------------------------------|


                                                                                    
-----------------------------|
-----------------------------|
-----------------------------|
--2--2--2--2--4--4--4--4--4--|
-----------------------------|
-----------------------------|

Both guitars play this:
                                         
----------------------------------------|
----------------------------------------|
--9---------9--------9---------9--------|
--9---------9--------9---------9--------|
--7--7-7-7--7--7--7--7--7-7-7--7--7--7--|
----------------------------------------|
                                         
----------------------------------------|
----------------------------------------|
--9---------9--------9---------9--------|
--9---------9--------9---------9--------|
--7--7-7-7--7--7--7--7--7-7-7--7--7--7--|
----------------------------------------|


    verse 1:                                          
|-----------------------------------------|
|-----------------------------------------|
|*--9---------9--------9---------9--------|
|*--9---------9--------9---------9--------|
|---7--7-7-7--7--7--7--7--7-7-7--7--7--7--|
|-----------------------------------------|
                                         
----------------------------------------|
----------------------------------------|
--7---------7--------7---------7--------|
--7---------7--------7---------7--------|
--5--5-5-5--5--5--5--5--5-5-5--5--5--5--|
----------------------------------------|
                                         
----------------------------------------|
----------------------------------------|
--9---------9--------9---------9--------|
--9---------9--------9---------9--------|
--7--7-7-7--7--7--7--7--7-7-7--7--7--7--|
----------------------------------------|
                                         
----------------------------------------|
----------------------------------------|
--7---------7--------7---------7--------|
--7---------7--------7---------7--------|
--5--5-5-5--5--5--5--5--5-5-5--5--5--5--|
----------------------------------------|
                                         
----------------------------------------|
----------------------------------------|
--5---------5--------5---------5--------|
--5---------5--------5---------5--------|
--3--3-3-3--3--3--3--3--3-3-3--3--3--3--|
----------------------------------------|
                                         
----------------------------------------|
----------------------------------------|
--9---------9--------9---------9--------|
--9---------9--------9---------9--------|
--7--7-7-7--7--7--7--7--7-7-7--7--7--7--|
----------------------------------------|
                                         
----------------------------------------|
----------------------------------------|
--5---------5--------5---------5--------|
--5---------5--------5---------5--------|
--3--3-3-3--3--3--3--3--3-3-3--3--3--3--|
----------------------------------------|
                                           
-----------------------------------------||
-----------------------------------------||
--4---------4--------4---------4--------*||
--4---------4--------4---------4--------*||
--2--2-2-2--2--2--2--2--2-2-2--2--2--2---||
-----------------------------------------||

 chorus:                                                          
------------------------------|---------------------------|
------------------------------|---------------------------|
------------------------------|---------------------------|
--9------7------5------7------|--7------------------------|
--9------7------5------7------|--7------------------------|
--7------5------3------5------|--5------------------------|
                                                           
------------------------------|---------------------------|
------------------------------|---------------------------|
----------------5------7------|--4------------------------|
--5------4------5------7------|--4------------------------|
--5------4------3------5------|--2------------------------|
--3------2--------------------|---------------------------|
                                                           
------------------------------|---------------------------|
------------------------------|---------------------------|
------------------------------|---------------------------|
--9------7------5------7------|--7------------------------|
--9------7------5------7------|--7------------------------|
--7------5------3------5------|--5------------------------|
                                                                        
------------------------------|----------------------------------------|
------------------------------|----------------------------------------|
----------------5------7------|--9---------9--------9---------9--------|
--5------4------5------7------|--9---------9--------9---------9--------|
--5------4------3------5------|--7--7-7-7--7--7--7--7--7-7-7--7--7--7--|
--3------2--------------------|----------------------------------------|
                                         
----------------------------------------|
----------------------------------------|
--9---------9--------9---------9--------|
--9---------9--------9---------9--------|
--7--7-7-7--7--7--7--7--7-7-7--7--7--7--|
----------------------------------------|

Now repeat from the beginning of the verse all the way up to the end 
of the chorus. Then there is a harmony interlude. One guitar plays this:
                                          
|----------------------------------------|
|----------------------------------------|
|*---------------------------------------|
|*----------------------9--10--7--9------|
|---7--7-7-7--10--9--7-------------------|
|----------------------------------------|
                                   
----------------------------------|
----------------------------------|
----------------------------------|
--7--9--7-------------------------|
-----------10--9--7--5------------|
----------------------------------|
                                        
---------------------------------------|
---------------------------------------|
---------------------------------------|
----------------------9--10--7--9------|
--7--7-7-7--10--9--7-------------------|
---------------------------------------|
                                    4x
------------------------------------||
------------------------------------||
-----------------------------------*||
--9--10--9--7----------------------*||
---------------10--9--7-------------||
------------------------------------||

The other guitar plays this:

|--------------------------------------|
|--------------------------------------|
|*---------------------7--9--5--7------|
|*--5--5-5-5--9--7--5------------------|
|--------------------------------------|
|--------------------------------------|
                                  
---------------------------------|
---------------------------------|
--5--7--5------------------------|
-----------9--7--5---------------|
--------------------9------------|
---------------------------------|
                                      
-------------------------------------|
-------------------------------------|
---------------------7--9--5--7------|
--5--5-5-5--9--7--5------------------|
-------------------------------------|
-------------------------------------|
                                  4x
----------------------------------||
----------------------------------||
--7--9--7--5---------------------*||
--------------9--7--5------------*||
----------------------------------||
----------------------------------||

Then one guitar plays a solo, while the other guitar plays 
this (4 times):

------------------------------------|
------------------------------------|
------------------------------------|
--7---------7------3---------3------|
--7---------7------3---------3------|
--5--5-5-5--5------1--1-1-1--1------|
                                     
------------------------------------|
------------------------------------|
------------------------------------|
--5---------5------7---------7------|
--5---------5------7---------7------|
--3--3-3-3--3------5--5-5-5--5------|

This is the first solo:
                                                                        
-------------------------------------------------------------------------
-------------------------------------------------------------------------
--14p12----------12-14p12----------12-14p12----------12-14p12----------12
--------14-12h14----------14-12h14----------14-12h14----------14-12h14---
-------------------------------------------------------------------------
-------------------------------------------------------------------------
                                              
---------------------------------------------|
---------------------------------------------|
--14p12----------12-----------------------5--|
--------14-12h14----12\-10-------------------|
----------------------------12~--------------|
---------------------------------------------|
                                                                   
--------------------------------|---------------------------------|
--------------------------------|---------------------------------|
--------------------------------|--------------------5~-----------|
--------7--5--------------------|--------------5--7---------------|
--------------7--6--5-----------|--5-----5--7---------------------|
-----------------------8~-------|-----8---------------------------|
                                       
--------------------------------------|
-----5-----5-----5-----8-----8-----8--|
--5-----5-----5-----7-----7-----7-----|
--------------------------------------|
--------------------------------------|
--------------------------------------|
                                       
--------------------------------------|
------13--13--13p-12------------------|
--14------------------14~-------------|
--------------------------------------|
--------------------------------------|
--------------------------------------|
                                                   
------17------17------17--------------------------|
--20b-----20b-----20b-----20b-20--17--------------|
--------------------------------------20--19--17--|
--------------------------------------------------|
--------------------------------------------------|
--------------------------------------------------|
                                     
------------------------------------|
--------------20----20b-------------|
----------19------------------------|
--19--17----------------------------|
------------------------------------|
------------------------------------|

Then that guitar plays this 4 times while the other plays a solo:
                                    
------------------------------------|
------------------------------------|
--9---------9------5---------5------|
--9---------9------5---------5------|
--7--7-7-7--7------3--3-3-3--3------|
------------------------------------|
                                     
------------------------------------|
------------------------------------|
--7---------7------9---------9------|
--7---------7------9---------9------|
--5--5-5-5--5------7--7-7-7--7------|
------------------------------------|

This is the second solo:

--------------------------------------------------|
--15p-12------15p-12------15p-12------15p-12------|
----------14----------14----------14----------14--|
--------------------------------------------------|
--------------------------------------------------|
--------------------------------------------------|
                                           
------14--15--17--15--14------------------|
--17----------------------17~---------15--|
------------------------------------------|
------------------------------------------|
------------------------------------------|
------------------------------------------|
                                             
--17b-----17--15--14------------------------|
----------------------15p-12------------15--|
------------------------------14--14b---14--|
--------------------------------------------|
--------------------------------------------|
--------------------------------------------|
                                               
----------------------------------------------|
----------------------------------------------|
--14--12-------------------12-----------------|
----------14--12-----12h14----14----------12--|
------------------14--------------------------|
----------------------------------------------|
 
Add harmony here:                                                  
--------------------------------------------------|
--------------------------------------12------12--|
--------------12------12--14--12--14------14------|
--14--12--14------14------------------------------|
--------------------------------------------------|
--------------------------------------------------|
                                       
------14--15--17----17b---------------|
--17------------------------------12--|
--------------------------------------|
--------------------------------------|
--------------------------------------|
--------------------------------------|
                                               
--15b-----15--14--12------12--12------12--12--|
----------------------15b---------15b---------|
----------------------------------------------|
----------------------------------------------|
----------------------------------------------|
----------------------------------------------|
                                                                
--15b-----15--14--12----------------|--------------------------|
----------------------15b-----------|--------------------------|
------------------------------------|--------------------------|
------------------------------------|--------------------------|
------------------------------------|--------------------------|
------------------------------------|--------------------------|

This is the harmony during the second solo:

--------------------------------------------------|
--------------------------------------15------15--|
--------------16------16--17--16--17------17------|
--17--16--17------17------------------------------|
--------------------------------------------------|
--------------------------------------------------|
                                                                      
------17--19--20----20b-------------|
--20--------------------------------|
------------------------------------|
------------------------------------|
------------------------------------|
------------------------------------|

Now go back and play the chorus twice more, then play the intro, and end
with an E5 powerchord at the 7th fret, then you're done :)

  development and support by
dmitry ivanov