rock
 
|tablatures   |lyrics   |discussion forums   |more tabs @ XGuitar.com

Iron Maiden tabs

Public Enema Number One guitar tab

			  Public Enema Number One 
			 -------------------------
		       From "No Prayer For The Dying"
			 Tabbed by Adrian Diaz 
			    (pazhuato@hotmail.com) 

Hello there!!! Here`s PENO ... hope you enjoy, but first Iīd like to clear two things for you: 1.- The intro was tabbed by Nelson Fontana and I didn't wanna tab it without guivin' him credit. 2.- I only have the live version of PENO so if you find anything weird, DON'T blame me!!!


Here is the intro for this song (Nelson's): 

Guitar I: ( Janick )
e |----------------------------------------------------------------|
B |-------------------12----13---12---------13---15^---------------|
G |-----12---14----------------------------------------------------|
D |----------------------------------------------------------------|
A |----------------------------------------------------------------|
E |----------------------------------------------------------------|

e |----------------------------------------------------------------|
B |---17----15---13----15^-----------------------------------------|
G |-------------------------------12----12^^-----------------------|
D |----------------------------------------------------------------|
A |----------------------------------------------------------------|
E |----------------------------------------------------------------|

e |----------------------------------------------------------------|
B |-------------------12----13---12---------13---15^---------------|
G |-----12---14----------------------------------------------------|
D |----------------------------------------------------------------|
A |----------------------------------------------------------------|
E |----------------------------------------------------------------|

e |----------------------------------------------------------------|
B |---17----15---13----15^-----------------------------------------|
G |----------------------------------------------------------------|
D |----------------------------------------------------------------|
A |----------------------------------------------------------------|
E |----------------------------------------------------------------|

e |----------------------------------------------------------------|
B |-------------------12----13---12---------13---15^---------------|
G |-----12---14----------------------------------------------------|
D |----------------------------------------------------------------|
A |----------------------------------------------------------------|
E |----------------------------------------------------------------|

e |----------------------------------------------------------------|
B |---17----15---13----15^-----------------------------------------|
G |---------------------------------12---12^^----------------------|
D |----------------------------------------------------------------|
A |----------------------------------------------------------------|
E |----------------------------------------------------------------|

e |----------------------------------------------------------------|
B |-------------------12----13---12---------13---15^---------------|
G |-----12---14----------------------------------------------------|
D |----------------------------------------------------------------|
A |----------------------------------------------------------------|
E |----------------------------------------------------------------|

_You can play like you want to, but if you want it right here's a correction. G|------------14---12^^---12h14h12-----11^^^-----------|
The error is right below, you canīt miss it!!! 
e |----------------------------------------------------------------|
B |---13----12-----------------------------------------------------|
G |-----------------------14---12^^---14----12-----11^^------------|
D |----------------------------------------------------------------|
A |----------------------------------------------------------------|
E |----------------------------------------------------------------|

Guitar II: (Dave )  WARNING!!!! This is WRONG ... 
tabbed right at the end
e |----------------------------------------------------------------|
B |-------------------8----10---8---------10---12^-----------------|
G |-----9---11-----------------------------------------------------|
D |----------------------------------------------------------------|
A |----------------------------------------------------------------|
E |----------------------------------------------------------------|

e |----------------------------------------------------------------|
B |---13----12---10----12^-----------------------------------------|
G |-------------------------------9----9^^-------------------------|
D |----------------------------------------------------------------|
A |----------------------------------------------------------------|
E |----------------------------------------------------------------|

e |----------------------------------------------------------------|
B |-------------------8----10---8---------10---12^-----------------|
G |-----9---11-----------------------------------------------------|
D |----------------------------------------------------------------|
A |----------------------------------------------------------------|
E |----------------------------------------------------------------|

e |----------------------------------------------------------------|
B |---13----12---11----12^^----------------------------------------|
G |----------------------------------------------------------------|
D |----------------------------------------------------------------|
A |----------------------------------------------------------------|
E |----------------------------------------------------------------|

e |----------------------------------------------------------------|
B |-------------------8----10---8---------10---12^-----------------|
G |-----9---11-----------------------------------------------------|
D |----------------------------------------------------------------|
A |----------------------------------------------------------------|
E |---------------------------------------------------------------|

e |----------------------------------------------------------------|
B |---13----12---10----12^-----------------------------------------|
G |-------------------------------9----9^^-------------------------|
D |----------------------------------------------------------------|
A |----------------------------------------------------------------|
E |----------------------------------------------------------------|

e |----------------------------------------------------------------|
B |-------------------8----10---8---------10---12^-----------------|
G |-----9---11-----------------------------------------------------|
D |----------------------------------------------------------------|
A |----------------------------------------------------------------|
E |----------------------------------------------------------------|

e |----------------------------------------------------------------|
B |---10-----------------------------------------------------------|
G |------------12---11---9^^-----11-----9------7^^-----------------|
D |----------------------------------------------------------------|
A |----------------------------------------------------------------|
E |----------------------------------------------------------------|

Sorry, but I'm not sure about the chords yet. I'm workin' on it, but if someone knows about it, send me the file please....
And, if anyone has an idea for any tab, PLEASE e-mail me, give me what you have and I'll try to finish it



Now my turn (Adrian) 'cause I DO know'em

(A)Verses:
|-----------------------------------------------------------
|-----------------------------------------------------------
|-----------------------------------------------------------
|-9-----9-------12-----11-------9-----9-------5-----7-------
|-7-----7-------10-----9--------7-----7-------3-----5-------
|---0-0---0-0-0----0-0----0-0-0---0-0---0-0-0---0-0---0-0-0-

|--------------------------------------|
|--------------------------------------|
|-------------------------------7~-5-7-|
|-9-----9-------12-----11-------7~-5-7-|
|-7-----7-------10-----9--------5~-3-5-|
|---0-0---0-0-0----0-0----0-0-0--------|

(B)Chorus:
|-----------------|
|-----------------|
|-2~-4-5-10~-/7-5-|
|-2~-4-5-10~-/7-5-|
|-0~-2-3--8~-/5-3-|
|-----------------|

And Then .....
|----------------------|
|----------------------|
|-------9-12b(14)-12-9-|
|-10-12----------------|
|----------------------|
|----------------------|

(C)Other part:
And THEEEEN.....
(1st time)
|-------------------------------------------------------------|
|--9b(10)r( 9)-11b(12)r(11)-12b(13)r(12)-18b(19)-18b(19)r(18)-|
|-10b(11)r(10)-12b(13)r(12)-13b(14)r(13)-19b(20)-19b(20)r(19)-|
|-------------------------------------------------------------|
|-------------------------------------------------------------|
|-------------------------------------------------------------|

(D)ANOther part(8)):
(Second time)
|-------------------------------------------------|
|-------------------------------------------------|
|-------------------------------------------------|
|-------------17-16-14----17-16-14----14----------|
|-14-16-17-16----------17----------17----17-16-17-|
|[17]---------------------------------------------|
Second time: switch the first 14 for a 17 on the low E chord, THAT is the                    note on "[]". OH and SLIGHTLY palm mute this part.

(E)SOLO!!!!
Note: Use the chorus RYTHM ... NOT the lead ... If you do use them DONīT blame ME īcause it sounds bad!!!
|-----------------------------------------------------------------------
|-----------------------------------------------------------------18----
|----------------------------------------------/17-19-20-17-19-20----20-
|----------------------------14-16-17-14-16-17--------------------------
|-14-16-17-14-16-17-14-16-17--------------------------------------------
|-----------------------------------------------------------------------

|--------------------------------13-15-17b(19)r(17)p15p13-13b(14)-13b(14)
|-18-20-18-16-15h16p13~-13h15h16-----------------------------------------
|------------------------------------------------------------------------
|------------------------------------------------------------------------
|------------------------------------------------------------------------
|------------------------------------------------------------------------

|-r(13)p11h13-------19-17-15h17p17----------------------18-16-14h16p14\13
|-------------15-16----------------16-15-15h16p15-15-16------------------
|------------------------------------------------------------------------
|------------------------------------------------------------------------
|------------------------------------------------------------------------
|------------------------------------------------------------------------

|-h14-------------------------13b(14)r(13)p11h13~~----11----13b(14)r(13)p
|-----14h15p14h15h14h16p15p14----------------------13----13--------------
|------------------------------------------------------------------------
|------------------------------------------------------------------------
|------------------------------------------------------------------------
|------------------------------------------------------------------------

|-11h13-13b(14)r(13)p11h13-13b(14)r(13)p11h13~-15h17h19-15h17h19-15h17h19
|------------------------------------------------------------------------
|------------------------------------------------------------------------
|------------------------------------------------------------------------
|------------------------------------------------------------------------
|------------------------------------------------------------------------

|-14h15p14h15h14h15p4-14h15p14h15h14h15p4-14h15p14h15h14h15p4-17b(19)~~~~
|------------------------------------------------------------------------
|------------------------------------------------------------------------
|------------------------------------------------------------------------
|------------------------------------------------------------------------
|------------------------------------------------------------------------

Use a ... a ... I donīt know if itīs a delay or a phaser, maybe chorus??? You figure it out!!!
|-19-17-15-14-12-14-12~~~-|
|-------------------------|
|-------------------------|
|-------------------------|
|-------------------------|
|-------------------------|

THAT'S IT!!! ... now ... here's the riff progretion: (if you noticed, there are letters between brackets in the first part of the riff)

BUT FIRST!!! ... here's the low intro part corrected as I promised:

There are this numbers on the high part:
e|-------------------|
B|-------12-13-15-17-|
G|-12-14-------------|
Switch them for:
e|-------------------|
B|--------9-10-12-14-|
G|--9-11-------------|
And there you have it, You'll figure out how to play it right.

So .... Here's the riff progretion:

Intro
A x2
B x1 (Rythm and lead TOO!!)
C x1
A x2
B x1
D x2 (Including the note on the low E chord)
E x1 (As I said, play the chorus rythm as solo rythm, and make you own    variations of the solo, add bends and shaking, etc.)
A x2
B x2
Final solo ... I'll post later (I have no time now!!!)

Send corrections to pazhuato@hotmail.com but don't be hard on me, this is my second posting!!!

BYE!!!

P.D.  Iīm working on the CORRECTED and COMPLETE Powerslave. 
P.D.2 If you know Testament's First strike is deadly PLEASE mail it to me!!!
  development and support by
dmitry ivanov