rock
 
|tablatures   |lyrics   |discussion forums   |more tabs @ XGuitar.com

Iron Maiden tabs

Prodigal Son bass tab

Song: Prodigal Son
 Band: Iron Maiden
 Album: killers
 Transcribed by: Amaury Espinal (powerslave25@hotmail.com)
 Date: 3/7/2004

 I want to make a comment, someone plagiarize (Copy or Photocopy) one of my tabs
 (Die with Your Boots On), I only have to say, be creative and have your own imagination.


  (0:00)           (0:14)    (0:23)             (0:29)          (0:31)     (0:32)    (0:33)
 G-----------------------------------------9---------------------119----97------------97---7-75---
 D---------------------------------------9---9---9-9999-9999-999----11-9---7-7777-777---9-7----7--
 A----------------------------32-3-57-7-----------------------------------------------------------
 E-7-r-5-r-3-r-0-r--7-r-5-r-3---------------------------------------------------------------------

  (0:35)                   (0:40)          (0:42)          (0:40)  (0:45)     (0:47)
 G---------------------------9-9999-99997-------------------119----------------97---7-75---
 D-5-5555-5555-5555-55-7-777-------------9--9-9999-9999-999-----11--7-7777-777---9-7----7--
 A-----------------------------------------------------------------------------------------
 E-----------------------------------------------------------------------------------------

  (0:48)                                   (0:55)
 G---------------------------9-9999-99997--------------------------------------------
 D-5-5555-5555-5555-55-7-777-------------9--5-7-----------------5-7------------------
 A----------------------------------------------7-7777-7777-777-----7-7777-7777-777--
 E-----------------------------------------------------------------------------------

 (1:01)               (1:04)            (1:08)
 G-------------------------6-66677776-----------------------------------------------
 D-5-7-----------------5--------------7--5-7-----------------5-7--------------------
 A-----7-7777-7777-777---7-------------------7-7777-7777-777-----7-7777-7777-77775--
 E-------------------------------------------------------------------------------7--

 (1:15)"Listen to me...(1:18)               (1:21)              (1:25)      (1:27)
 G--------------------------------------------------------------------------------------
 D---------------------5-5555-5555-555-------7-7777-7777-77775----------------5--55-75--
 A-7-7777-7777-77775-------------------3----------------------7--3-33333-35--7-7--------
 E------------------7--------------------5-3--------------------------------------------

 (1:28)       (1:30)                                                        (1:40)
 G-----------------9--------------------------------------------------------------------
 D-------------2/9---9--5-5555-5555-555-------7-7777-7777-77775---------------5--55-75--
 A-7-7777-7777--------------------------3----------------------7--3-33333-35-7-7--------
 E----------------------------------------5-3-------------------------------------------

 (1:41)       (1:43)
 G--------------------------------------------------------------------------------------
 D-------------2/9-99\\--5-5555-5555-555-------7-7777-7777-77775---------------5--55-75--
 A-7-7777-7777--------------------------3----------------------7--3-33333-35-7-7--------
 E----------------------------------------5-3-------------------------------------------

 (1:54)       (1:56)
 G---------------9-9--7------------------------------------------------------------------
 D-------------79-9-9--9--5-5555-5555-555-------7-7777-7777-77775------------------------
 A-7-7777-7777----------------------------3----------------------7--3-33333-35-5555-555--
 E------------------------------------------5-3------------------------------------------

 (2:07)               (2:10)"I'm on my knees...                (2:17)I'm on my knees...
 G-----------------------------------------------------------------6-66677776------------------------
 D-5-7-----------------5-7-----------------5-7-----------------5-------------7--5-7------------------
 A-----7-7777-7777-777-----7-7777-7777-777-----7-7777-7777-777---7------------------7-7777-7777-777--
 E---------------------------------------------------------------------------------------------------

                           (2:27)"Oh Lamia Please try to help me...                (2:33)
 G----------------------------------------------------------------------------------12/1412-------
 D-5-7----------------------7777-9999-10101010-12121212-14-14141414-14141414-141414--------14\\12--
 A-----7-7777-7777-7777-77------------------------------------------------------------------------
 E------------------------------------------------------------------------------------------------

 (2:34)"The devils got...          (2:38)                       (2:40)"Lamia I've got...
 G----------------------------------12h14----12h14----12h4---------------------------------------
 D-7777-9999-10101010-9999-12121212------14-------14------14\\12--7777-9999-10-10101010-10101010--
 A-----------------------------------------------------------------------------------------------
 E-----------------------------------------------------------------------------------------------

                     (2:46)        (2:47)"The devils got a hold...
 G----------------------12/14-----------------------------------------------------------
 D-101010-9999-14141414------14\\12--7777-9999-10101010-12121212-------------------------
 A--------------------------------------------------------------7-7777-7777-7777-5------
 E---------------------------------------------------------------------------------7-0--

 (2:54)                 (2:57)                             (3:03)   (3:07)
 G---------------------------------------------------------------------------------
 D---------------------------------------------------------------------------------
 A-7777-7777-7777-5------7777-7777-7777-5------7777-7777-77--7---7-r-3---3--3-2----
 E------------------7-0-------------------7-0-------------------7-------3-------3--

 (3:10)   (3:14)         (3:17)      (3:25)Solo                     (3:29)
 G----------------------------------------99---9-9--9-9--9-9--75--------55--------5----
 D--------------------------------------9---9---9----9----9-----------5---5--3--5---5--
 A-7--77-r-3---33--3-2---r-5-r-3-r-7--7--------------------------3--3------------------
 E---7--------3--------3---------------------------------------------------------------

     (3:32)                     (3:36)                  (3:39)                    (3:42)
 G--------99---9-9----9----75--------55--------5---5-----------7-----------7-----------55-------5----
 D------9---9---9---9---9----------5---5--3--5---5---5-------7---7-------7---7-------5---5----5---5--
 A-7--7-----------------------3--3----------------------5--5--------5--5--------3--3-------3---------
 E---------------------------------------------------------------------------------------------------

     (3:47)                 (3:50)                 (3:53)               (3:57)
 G--------99------9----75--------55--------5------------9-------9------------55------5---5----
 D------9---9---9---9----------5---5--5--5---5--------9---9---9---9--------5---5---5---5---5--
 A-7--7-------------------3--3-------------------7--7-----------------3--3--------------------
 E--------------------------------------------------------------------------------------------

    (4:00)                 (4:03)       (4:07)    (4:18)     (4:22)         (4:24)     (4:25)    (4:27)
 G--------7-----------7--------10-9--99-----------------9--------------------119----97------------97---7-75---
 D------7---7-------7---7-----------------------------9---9---9-9999-9999-999---11-9---7-7777-777---9-7----7--
 A-5--5--------5--5---------7-----------------------7---------------------------------------------------------
 E----------------------------------------0-r-5-7-r-----------------------------------------------------------

 (4:28)                    (4:33)          (4:35)
 G---------------------------9-9999-99997-------------------119----97-------------97---7-75---
 D-5-5555-5555-5555-55-7-777-------------9--9-9999-9999-999----11-9---7-7777-777-9--9-7----7--
 A--------------------------------------------------------------------------------------------
 E--------------------------------------------------------------------------------------------

                                           (4:48)
 G---------------------------9-9999-99997--------------------------------------------
 D-5-5555-5555-5555-55-7-777-------------9--5-7-----------------5-7------------------
 A----------------------------------------------7-7777-7777-777-----7-7777-7777-777--
 E-----------------------------------------------------------------------------------

                      (4:58)
 G-------------------------6-66677776-------------------------------------------------
 D-5-7-----------------5-------------7--5-7------------------5-7----------------------
 A-----7-7777-7777-777---7-------------------7-7777-7777-777-----7-7777-7777-7777-77--
 E------------------------------------------------------------------------------------

 (5:08)"Oh Lamia please try to help me...
 G---------------------------------------------------------12/1412-------
 D-7777-9999-10101010-12121212-14-14141414-14141414-141414--------14\\12--
 A-----------------------------------------------------------------------
 E-----------------------------------------------------------------------

 (5:14)"The devil's got a hold...                               (5:21)"Lamia I've got this curse...
 G----------------------------------12h14----12h14----12h4-----------------------------------------
 D-7777-9999-10101010-9999-12121212------14-------14------14\\12--7777-9999-10-10101010-10101010----
 A-------------------------------------------------------------------------------------------------
 E-------------------------------------------------------------------------------------------------

                                   (5:27)"The devil's got a...  (5:30)
 G----------------------12/14-----------------------------------------------------------
 D-101010-9999-14141414------14\\12--7777-9999-10101010-12121212-------------------------
 A--------------------------------------------------------------7-7777-7777-7777-5------
 E---------------------------------------------------------------------------------7-0--

 (5:34)                                                   (5:44)      (5:55)
 G----------------------------------------------------------------------------9-------
 D-------------------------------------------------------------------------9-----9----
 A-7777-7777-7777-5------7777-7777-7777-5------7777-7777-r--------------7-------------
 E------------------7-0-------------------7-0--------------7-r-5-r-3-r-------------0--


 Any comments or corrections, email me: powerslave25@hotmail.com
 Dedicada a todos los fans de Iron Maiden en la Republica Dominicana
 y en todo el mundo.
  development and support by
dmitry ivanov