rock
 
|tablatures   |lyrics   |discussion forums   |more tabs @ XGuitar.com

Iron Maiden tabs

Paschendale bass tab

Iron Maiden
Passchendale
By Francisco (ravenlord_87@hotmail.com)

Intro x2 (Bass enters when Dickinson starts singing)

g----------------------------
d--10-9-7-5--7-5-4-----------
a-------------------7--------
e----------------------------

Heavy part of Intro x1

g---------------------------
d---------------------------
a-77-55-33-22~-33-22-00-----
e----------------------00~--

g----------------------------
d----------------------------
a-77-55-33-22-33-55-55-77~---
e----------------------------

Repeat Intro

Heavy part of intro 2 x2

g----------------------------------------------------------------------------
d--0-10-10--0-9-9--0-7-7--0-5-5-0-4h5---0-7-7--0-5-5--0-4-4-0----------------
a--------------------------------------------------------------0-77--0-5h7---
e----------------------------------------------------------------------------

Verse 

g----------------------------2-0--------
d-------------------2h5-5555-----4-2-0--
a-5h7-7--7-5-5h7-77---------------------
e---------------------------------------

g-------------------------------------------
d-2/4-5-5-4-2-000-222-2-4-5555--------------
a-------------------------------333-555-----
e-------------------------------------------

g----------------------------2-0--------
d-------------------2h5-5555-----4-2-0--
a-5h7-7--7-5-5h7-77---------------------
e---------------------------------------

g----------------------------------
d-0h2-000-222/55555----------------
a-------------------3333-555-------
e----------------------------------


Fill 1 x2

g-------------------------
d-------------------------
a----3----------5---------
e-0~---3--0~--3---0~------

Repeat heavy part of intro 2

Chorus x2

g------------------------------------------------
d-222222-5---------------2222222--5-----------7--
a----------3-555555--2-5-------------33-55-55----
e------------------------------------------------

Fill 2 x4

g-------------------------------
d-------------------------------
a-00-32-22--53-33--75-55--5--3--
e-------------------------------

Repeat Heavy part of intro 2 X4

Fill 3 x3

g----------4-5--4-2--------
d-2-4--5-7----------5-4----
a--------------------------
e--------------------------

Fill 4 x3

g---------------------------------------------
d-------0-2--32-0-32~--3-2-0---0-2-0----------
a-0-2-3----------------------3-------3-2-0----
e-------------------------------------------0-

g-------------------------------------------0---
d-------0-2--32-0-32~--3-2-0---0-2-0------------
a-0-2-3----------------------3-------3-2-0------
e-----------------------------------------------

Fill 5 X2

g-----------------------------
d-----------------------------
a-7777-333-55~---555-222-33~--
e-----------------------------

g-------------------------------------
d-------------------------------------
a-7777-333-55~----555-222-3--5h7------
e--------------------------------5h7--

Repeat Fill 1

Fill 6 x6

g-------------------------
d---------55-----------77-
a-7777777----555555555----
e-------------------------

Fill 7 (I think they play this fill about 15 times, during the solo)

g---------------------------
d--------33----------55-----
a-555555-----3333333--------
e---------------------------

Repeat heavy part of intro 2
Repeat Chorus
Repeat Fill 1
Repeat Intro 

Thats it, I really destroyed my fingers, to bring you this tab 
so please rate it
  development and support by
dmitry ivanov