rock
 
|tablatures   |lyrics   |discussion forums   |more tabs @ XGuitar.com

Iron Maiden tabs

Out Of The Silent Planet bass tab

Iron Maiden - Out of the Silent Planet
Tom Abell
Tuning (EADG)

INTRO
G--------------------------------------------
D--------------------------------------------
A--------------------------------------------
E----0--5-3---0--5-3---0--5-3---0--5-8--5----

BUILD UP (x4)
G---------------------------------------------------
D---------------------------------------------------
A---7-7-7-7--3--3-3-3---------------5--5-5-5--------
E-----------------------3--3-3-3--------------------

FAST HEAVY PART
G-------------------------------------------------------------
D-------------------------------------------------------------
A---77777--77777--77777--77777--77777--77777--77777--77777----
E-------------------------------------------------------------

VERSE
G----------------------------------------
D----------------------------------------
A----7-77777-7-77777-3-33333-5-55555-----
E----------------------------------------

G---------------------------------------------
D---------------------------------------------
A----7-77777-7-77777---3-33333---0-00000------
E---------------------------------------------

G---------------------------------------
D---------------------------------------
A----7-77777-7-77777-3-33333-5-55555----
E---------------------------------------

G---------------------------------------
D---------------------------------------
A----7-77777-7-77777-3-33333-5-55555----
E---------------------------------------



BRIDGE
G-------------------------------------------------------------
D-------------------------------------------------------------
A---0-000--3-333---------2-222----0-000--3-333--5-555-5-555---
E-----------------0-000---------------------------------------

CHORUS #1 (x2)
G--------------------------------------------
D--------------------------------5-----------
A---7---3-------5--------7---3-------5-------
E-----------3--------------------------------

CHORUS #2,3,4,5 (x2) 
G--------------------------------------------------------------
D--------------------------------------------------------------
A----77777777777--33333333333---------------55555555555--------
E------------------------------33333333333---------------------

G--------------------------------------------------------------
D------------------------------55555555555---------------------
A----77777777777--33333333333---------------55555555555--------
E--------------------------------------------------------------

TWIN GUITAR PART (x4)
G--------------------------------------------------------------
D--------------------------------------------------------------
A----77777777777--33333333333---------------55555555555--------
E----------------------------- 33333333333---------------------

SOLO PART 1 (x24)
G------------------------
D--------------5---------
A----7-5-7-5-7-----------
E------------------------

SOLO PART 2
G--------------------------------------------
D--------------------------------------------        (x3)
A----3-333--5-555--7-777-7-777---------------
E--------------------------------------------

G--------------------------------------------
D--------------------------------------------        (x1)
A----3-333--5-555--2-222---3--5--------------
E--------------------------------------------

OUTRO (x5)
G---------------------------------------
D---------------------------------------
A-----77777--33333--------55555---------
E------------------33333----------------

END ON
G----------------------
D----------------------
A----------------------
E-----------0---------- (let ring)
  development and support by
dmitry ivanov