rock
 
|tablatures   |lyrics   |discussion forums   |more tabs @ XGuitar.com

Iron Maiden tabs

Only The Good Die Young bass tab

Only The Good Die Young
IRON MAIDEN

BASS TAB
Transcribed by Guilherme Braga 

---------------------------------------------------------------------------
---------------------------------------------------------------------------
-3-5-7-777-777-777-777-777-777-777-0-3-333-333-333-333-333-333-333-0-5-555-
---------------------------------------------------------------------------

---------------------------------------------------------------------------
---------------------------------------------------------------------------
555-555-555-555-555-555-0-7-777-777-7-5-5-7-777-777-7-5-5-7-777-777-777-777
---------------------------------------------------------------------------

---------------------------------------------------------------------------
---------------------------------------------------------------------------
-777-777-777-0-3-333-333-333-333-333-333-333-0-5-555-555-555-555-555-555-55
---------------------------------------------------------------------------

---------------------------------------------------------------------------
--------------------------------------------------------------5------------
5-0-7-777-777-7-5-5-7-777-777-7-3-333-333-333-333-333-333-3-5---7-777-777-7
---------------------------------------------------------------------------
				        lyrics enter

---------------------------------------------------------------------------
---------------------------------------------------5-----------------------
77-777-777-777-777-7-3-333-333-333-333-333-333-3-5---7-777-777-777-777-777-
---------------------------------------------------------------------------

----------2-222-222-2-2-4-5-555-555-555-5-2-222-222-2-2-4-5-555-555-555-5-2
---------------------------------------------------------------------------
777-777-7------------------------------------------------------------------
---------------------------------------------------------------------------

-222-222-2-2-4-5-555-555-555-5---------------------------------------------
-------------------------------0-2-5-2-222-222-222-222-222-222-222-2-3-333-
---------------------------------------------------------------------------
---------------------------------------------------------------------------

---------------------------------------------------------------------------
------------------------5--------------------------------------------------
333-333-333-333-333-3-5---7-777-777-777-777-777-777-777-7-3-333-333-333-333
---------------------------------------------------------------------------

-----------------------------------------------2-222-222-2-2-4-5-555-555-55
-------------5-------------------------------------------------------------
-333-333-3-5---7-777-777-777-777-777-777-777-7-----------------------------
---------------------------------------------------------------------------

5-5-2-222-222-2-2-4-5-555-555-555-5-2-222-222-2-2-4-5-555-555-555-5--------
--------------------------------------------------------------------0-2-5-2
---------------------------------------------------------------------------
---------------------------------------------------------------------------

---------------------------------------------------------------------------
222-222-222-222-222-222-222-2----------------------------------------------
------------------------------5-555-555-555-555-555-555-555-1-1-1-1-1-1-1-3
---------------------------------------------------------------------------
			            chorus: "only the good die young..."

---------------------------------------------------------------------------
---------------------------------------------------------------------------
-3-3-3-3-3-3-5-555-555-555-555-555-555-555-1-1-1-1-1-1-1-3-3-3-3-3-3-3-8-88
---------------------------------------------------------------------------

---------------------------------------------------------------------------
---------------------------------------------------------------------------
8-888-888-888-888-888-888-4-4-4-4-4-4-4-6-6-6-6-6-6-8-888-888-888-888-888-8
---------------------------------------------------------------------------

---------------------------------------------------------------------------
---------------------------------------------------------------------------
88-888-4-4-4-4-4-4-4-6-6-6-6-6-6-6-9-999-999-999-9-10-101010-10-7-777-7-9-9
---------------------------------------------------------------------------
				           guitar solo

---------------------------------------------------------------------------
---------------------------------------------------------------------------
99-999-999-9-----------------9-999-999-999-9-10-101010-10-7-777-7-9-999-999
-------------9-999-999-999-9-----------------------------------------------

---------------------------------------------------------------------------
---------------------------------------------------------------------------
-999-999-999-999-999-9-9-999-999-999-9-10-101010-10-7-777-7-9-999-999-999-9
---------------------------------------------------------------------------

-------------------121212-161616-171717-161616-171717-161616-171717-12-----
----------------14-----------------------------------------------------14--
---------------------------------------------------------------------------
9-999-999-999-9------------------------------------------------------------
		    bass solo

121212-161616-171717-16-191919-17-16-------121212-161616-171717-16-191919--
-------------------------------------17-14---------------------------------
---------------------------------------------------------------------------
---------------------------------------------------------------------------

17-17-16-16-17-17----121212-161616-171717-16-191919-17-16------------------
------------------14--------------------------------------17---------------
-------------------------------------------------------------3-5-7-777-777-
---------------------------------------------------------------------------

---------------------------------------------------------------------------
---------------------------------------------------------------------------
777-777-777-777-777-0-3-333-333-333-333-333-333-333-0-5-555-555-555-555-555
---------------------------------------------------------------------------

---------------------------------------------------------------------------
---------------------------------------------------------------------------
-555-555-0-7-777-777-7-5-5-7-777-777-7-5-5-7-777-777-777-777-777-777-777-0-
---------------------------------------------------------------------------

---------------------------------------------------------------------------
---------------------------------------------------------------------------
3-333-333-333-333-333-333-333-0-5-555-555-555-555-555-555-555-0-7-777-777-7
---------------------------------------------------------------------------

---------------------------------------------------------------------------
-----------------------------------------------5---------------------------
-5-5-7-777-777-7-3-333-333-333-333-333-333-3-5---7-777-777-777-777-777-777-
---------------------------------------------------------------------------

--------------------------------------------------------------------2-222-2
------------------------------------5--------------------------------------
777-7-3-333-333-333-333-333-333-3-5---7-777-777-777-777-777-777-777--------
---------------------------------------------------------------------------

22-2-2-4-5-555-555-555-5-2-222-222-2-2-4-5-555-555-555-5-2-222-222-2-2-4-5-
---------------------------------------------------------------------------
---------------------------------------------------------------------------
---------------------------------------------------------------------------

555-555-555-5--------------------------------------------------------------
--------------0-2-5-2-222-222-222-222-222-222-222-2------------------------
----------------------------------------------------3-333-333-333-333-333-3
---------------------------------------------------------------------------

---------------------------------------------------------------------------
-------5---------------------------------------------------------------5---
33-3-5---7-777-777-777-777-777-777-777-7-3-333-333-333-333-333-333-3-5---7-
---------------------------------------------------------------------------

------------------------------2-222-222-2-2-4-5-555-555-555-5-2-222-222-2-2
---------------------------------------------------------------------------
777-777-777-777-777-777-777-7----------------------------------------------
---------------------------------------------------------------------------

-4-5-555-555-555-5-2-222-222-2-2-4-5-555-555-555-5-------------------------
---------------------------------------------------0-2-5-2-222-222-222-222-
---------------------------------------------------------------------------
---------------------------------------------------------------------------

---------------------------------------------------------------------------
222-222-222----------------------------------------------------------------
------------5-555-555-555-555-555-555-555-1-1-1-1-1-1-1-3-3-3-3-3-3-3-5-555
---------------------------------------------------------------------------
	      chorus: "only the good die young..."
---------------------------------------------------------------------------
---------------------------------------------------------------------------
-555-555-555-555-555-555-1-1-1-1-1-1-1-3-3-3-3-3-3-3-8-888-888-888-888-888-
---------------------------------------------------------------------------

---------------------------------------------------------------------------
---------------------------------------------------------------------------
888-888-4-4-4-4-4-4-4-6-6-6-6-6-6-6-8-888-888-888-888-888-888-888-4-4-4-4-4
---------------------------------------------------------------------------

---------------------------------------------------------------------------
---------------------------------------------------------------------------
-4-4-6-6-6-6-6-6-6-9-999-999-999-9-10-101010-10-7-777-7-9-999-999-999-9----
------------------------------------------------------------------------9-9

----------------------------------------------------
----------------------------------------------------
-------------9-999-999-999-9-10-101010-10-7-777-7-9-
99-999-999-9----------------------------------------
  development and support by
dmitry ivanov