rock
 
|tablatures   |lyrics   |discussion forums   |more tabs @ XGuitar.com

Iron Maiden tabs

No More Lies guitar tab

No More Lies tab by Iron Maiden

Artist: Iron Maiden
No More Lies
Iron Maiden
Dance of Death
Tabbed by: Johnny (johnnny@yubc.net)
Intro

Guitar 1 and 2 play together

(guitar 1)
|------------------------------------------------|
|----------------------------------------8-------|
|---9-7-9--7-9-7-9-9--7-9-7-9-9--7-9-10----10-9--|
|-7----------------------------------------------|------|
|------------------------------------------------|      |
|------------------------------------------------|      |
                                                     Repeat x2
|------------------------------------------------|      |
|------------------------------------------------|      |
|-7-9-7-----------------------------------------7|------|
|-------10-10-9-10-9-10-10-9-10-9-7-7-5-7-5-7-5--|
|------------------------------------------------|
|------------------------------------------------|

(guitar 2)

|----12-10-12~--10-12-10-12-12~--10-12-10-12-12~--10-12-13-15-13-12--10-12-10---------|
|-10--------------------------------------------------------------------------13-13~--|
|-------------------------------------------------------------------------------------|
|-------------------------------------------------------------------------------------|--|
|-------------------------------------------------------------------------------------|  |
|-------------------------------------------------------------------------------------|  |
                                                                                   Repeat x2
|------------------------------------------------10-----------------------------------|  |
|-12-13-12-13-13~--12-13-12-10-10~--8-10-8-10--8--------------------------------------|  |
|-------------------------------------------------------------------------------------|  |
|-------------------------------------------------------------------------------------|  |
|-------------------------------------------------------------------------------------|--|
|-------------------------------------------------------------------------------------|




|----------------|---------------------|
|----------------|---------------------|
|---9-9-9-9-7-9--|---9-9-9-9-10-9-7-9--| Repeat x3
|-7--------------|-7-------------------|
|----------------|---------------------|
|----------------|---------------------|


|----------------|---------------------|
|----------------|---------------------|
|---9-9-9-9-7-9--|---9-9-9-9-10-9-10-9-|
|-7--------------|-7-------------------|
|----------------|---------------------|
|----------------|---------------------|


|------------------------------------------10----------------|  
|10xx-12x-13xx-10xx-12x-13xx-10xx-12x-13xx----13-12-13-12----|
|--------------------------------------------------------12\-only last time slide with echo-|
|------------------------------------------------------------|
|------------------------------------------------------------| Repeat x4
|------------------------------------------------------------|
(mute here only in this part, but not later)


Verse()
|----------------------------------------------------|
|----------------------------------------------------|
|----------------------------------------------------|
|---9---9---9----5---5---5----7---7---7----7---7--7--|
|-7---7---7----3---3---3----5---5---5----7---7--7----|
|----------------------------------------------------|
No more lies, No more lies, No more lies, No more lies
|---------------------------------------------------|
|---------------------------------------------------|
|---------------------------------------------------|
|-7-----------3-------------5-------------7---------|
|-7-----------3-------------5-------------7---------|
|-5-----------1-------------3-------------5---------|
Verse 2 ()
|---------------------|
|---------------------|
|---------------------|
|-7---3---5---5---7---|
|-7---3---5---5---7---|
|-5---1---3---5---5---|

     By Johnny-----Serbia-Belgrade------------------|
  development and support by
dmitry ivanov