rock
 
|tablatures   |lyrics   |discussion forums   |more tabs @ XGuitar.com

Iron Maiden tabs

No More Lies bass tab

Song: No More Lies
Band: Iron Maiden
Album: Dance Of Death
Transcribed by: Amaury Espinal (powerslave25@hotmail.com)
Date: 1/3/2004



   (0:00)                    (0:04)         (0:06)           (0:08)           Play x2 (0:00 to 0:22)
G-|----9--9----9--99----9--99--791012109-97----55----5--55-35----------7--7--7-|----|----------------
D-|-7---7----7--7-----7--7-------------------3-----3--3----------77--5--5--5---|-X2-|----------------
A-|------------------------------------------------------------5---------------|----|----------------
E-|----------------------------------------------------------------------------|----|----------------

   (0:23)                  (0:26)                (0:28)                  (0:31)             Play x2 (0:23 to 0:44)
G-|---9--9--9--9--9--9--9-----5--5--5---------------9--9--9--9--9--9--9---------------------|----|----------------
D-|-7--7--7--7--7--7--7--7--3--3--3--3--3-3--5-5--7--7--7--7--7--7--7--7-----------3-3--5-5-|-X2-|----------------
A-|--------------------------------------3----5-----------------------------5--55---3----5--|----|----------------
E-|-----------------------------------------------------------------------5--5--------------|----|----------------



   (0:45)                    (0:48)       (0:49)       (0:50)
G-|---9--9--9--9--9--9--9--9---5--5--5--5---7--7--7--7---9--9--9--9--9--9--9--9--
D-|-7--7--7--7--7--7--7--7---3--3--3--3---5--5--5--5---7--7--7--7--7--7--7--7----
A-|------------------------------------------------------------------------------
E-|------------------------------------------------------------------------------

 (0:53)
G---7--7--7--7-----------|----|-- Play x2 (0:45 to 1:06)
D--------------3-3--5-5--|-X2-|--
A-5--5--5--5----3----5---|----|--
E------------------------|----|--




  (1:07)"There's a darkening...(1:10)                    (1:12)
G-|---9--9--9--9--9--9--9--9-----5--5--5--5--5--5--5--5-----7--7--7--7--7--7--7--7--7---
D-|-7--7--7--7--7--7--7--7--7--3--3--3--3--3--3--3--3--3--------------------------------
A-|-------------------------------------------------------5--5--5--5--5--5--5--5--5--5--
E-|-------------------------------------------------------------------------------------

 (1:15)
G---7--7--7--7--7--7--7--7--|----|-- Play x4 (1:07 to 1:50)
D-5--5--5--5--5--5--5--5--5-|-X4-|-- 3rd time enter 2nd verse
A---------------------------|----|-- "Maybe i'll be back...
E---------------------------|----|--



  (1:51)"A Hurried time...(1:54)      (1:55) playx3     (2:07)"I'm coming back...
G-|--9--9--9-----7--7--7-----5--5--5-----7--7--7--|----|---9--9--9-----7--7--5---
D-|7--7--7--7--------------------------5--5--5--5-|-X3-|-7--7--7--7--------------
A-|------------5--5--5--5--3--3--3--3-------------|----|-------------5--5--5--5--
E-|-----------------------------------------------|----|-------------------------

 (2:10)      (2:11)                  (2:14)"No more lies...   (2:20)      (2:22)       Play Chorus x2 (2:14 to 2:35)
G---5--5--5-----7--7--7--7--7--7--7--|-99999-99999-55555-55555-77777-77777-77777-77777-|----|-----------------------
D-------------5--5--5--5--5--5--5--5-|-77777-77777-33333-33333-55555-55555-77777-77777-|-X2-|-----------------------
A-3--3--3--3-------------------------|-------------------------------------55555-55555-|----|-----------------------
E------------------------------------|-------------------------------------------------|----|-----------------------

  (2:36)"They're all sitting...      (2:41)          (2:43)             Play x4 (2:36 to 3:16)
G-|9----------------5----------------7----------------7----------------|----|----------------
D-|7-77777777777777-3-33333333333333-7----------------5-55555555555555-|-X4-|----------------
A-|----------------------------------5-55555555555555------------------|----|----------------
E-|--------------------------------------------------------------------|----|----------------

 (3:17)"The Clock is fast... (3:20)  (3:22)   (3:23)   (3:24)   (3:25)
G-9--------7--------5--------7--------9--------7--------5--------7---------------
D-7-777777-7--------5--------5-555555-7-777777-7--------5--------5-555555555555--
A----------5-555555-3-333333-------------------5-555555-3-333333-----------------
E--------------------------------------------------------------------------------

 (3:28)"No more lies...                           (3:38)"No more lies...        (3:44) 
G-99999-99999-55555-55555-77777-77777-77777-77777--9--------------5--------------7---------------
D-77777-77777-33333-33333-55555-55555-77777-77777--7-777777777777-3-333333333333-5-555555555555--
A-------------------------------------55555-55555------------------------------------------------
E------------------------------------------------------------------------------------------------

(3:46)            (3:49)Riff                (3:54)         (3:57)    (3:58) Play x 2 (3:49 to 4:09)
G-7---------------|-9------------------------5--------------7----------77-|----|-------------------
D-7---------------|-7-7777777777777777777777-3-333333333333-7----------55-|-X2-|-------------------
A-5-555555555555--|-----------------------------------------5-55555555----|----|-------------------
E-----------------|-------------------------------------------------------|----|-------------------

   (4:10)          (4:12)     (4:14)         (4:17)
G-|-9---------------5-5-55-77-9---------------7-7-55-77-|----|-- Play x2
D-|-7-777-777-77777-3-3-33-55-7-777-777-77777-7-7-33-55-|-X2-|-- (4:10 to 4:29)
A-|-------------------------------------------5-5-------|----|--
E-|-----------------------------------------------------|----|--

   (4:29)Riff2        (4:32)   (4:33)    (4:34)             (4:37)    (4:38)       play (4:29 to 4:48)
G-|-9------------------5--------7---------9------------------7--------5-----7-----|----|-------------
D-|-7-7777777777777777-3-333333-5-555555--7-7777777777777777-7--------3-333-5-555-|-X2-|-------------
A-|----------------------------------------------------------5-555555-------------|----|-------------
E-|-------------------------------------------------------------------------------|----|-------------

(4:49)Solo              (4:54)         (4:57)   (4:59)               (5:04)
G-9--------------5-5-7-7-9--------------7-7-5-7-9-------------5-5-7-7-9---------------
D-7-777-777-7777-3-3-5-5-7-777-777-7777-7-7-3-5-7-777-777-777-3-3-5-7-7-777-777-7777--
A---------------------------------------5-5-------------------------5-----------------
E-------------------------------------------------------------------------------------

 (5:06)   (5:09)Solo2      (5:11)  (5:12)        Play Solo2 x4 (5:09 to 5:28) 
G-7-7-5-7-|-9---------------5-------7-------|----|---------------------------
D-7-7-3-5-|-7-7777777777777-3-33333-5-55555-|-X4-|---------------------------
A-5-5-----|---------------------------------|----|---------------------------
E---------|---------------------------------|----|---------------------------

  (5:29)Solo3     (5:31)  (5:32)   (5:33)         (5:36)  (5:37)       Play Solo3 x2 (5:29 to 5:47)
G-|-9--------------5-------7--------9--------------7-------5-----7-----|----|----------------------
D-|-7-777777777777-3-33333-5-55555--7-777777777777-7-------3-333-5-555-|-X2-|----------------------
A-|------------------------------------------------5-55555-------------|----|----------------------
E-|--------------------------------------------------------------------|----|----------------------

  (5:48)"A hurried time...   (5:52)  Playx3  (6:03)  (6:05)   (6:06)    (6:07)
G-|-9--------7--------5--------7-------|----|-9--------7--------5--------7---------------
D-|-7-777777-7--------5--------5-555555|-X3-|-7-777777-7--------5--------5-555555555555--
A-|----------5-555555-3-333333---------|----|----------5-555555-3-333333-----------------
E-|------------------------------------|----|-------------------------------------------- 

 (6:10)"No more lies...                           (6:20)"No more lies...       (6:25)
G-99999-99999-55555-55555-77777-77777-77777-77777--9--------------5--------------7---------------
D-77777-77777-33333-33333-55555-55555-77777-77777--7-777777777777-3-333333333333-5-555555555555--
A-------------------------------------55555-55555------------------------------------------------
E------------------------------------------------------------------------------------------------
 
(6:27)          (6:30)"No more lies...        (6:35)         (6:37)
G-7--------------9--------------5--------------7--------------7---------------
D-7--------------7-777777777777-3-333333333333-5-555555555555-7---------------
A-5-555555555555----------------------------------------------5-555555555555--
E-----------------------------------------------------------------------------

(6:40)                  (6:45)          (6:47)         (6:49)(6:50)
G-9-----------------------5---------------7---------------77--9------------------------
D-7-777777777777777777777-3-333333-333333-7---------------55--7-777777777777777777777--
A-----------------------------------------5-555555-555555------------------------------
E--------------------------------------------------------------------------------------

 (6:55)           (6:57)         (7:00) (7:01)                 (7:03)      (7:05)
G-5----------------7---------------7-7----9--9--9--9--9--9--9-----5--5--5-------------
D-3-333333-333333--7---------------5-5--7--7--7--7--7--7--7--7--3--3--3--3--3-3--5-5--
A------------------5-555555-555555-------------------------------------------3----5---
E-------------------------------------------------------------------------------------

 (7:06)                  (7:09)  (7:11)"No more lies" 
G---9--9--9--9--9--9--9------------------------------
D-7--7--7--7--7--7--7--7-----------3---3--5---5--7---
A---------------------------5--55----3------5--------
E-------------------------5--5-------------------5---


Any comments or corrections, email me: powerslave25@hotmail.com
Dedicada a todos los fans de Iron Maiden en la Republica Dominicana
y en todo el mundo.
  development and support by
dmitry ivanov