rock
 
|tablatures   |lyrics   |discussion forums   |more tabs @ XGuitar.com

Iron Maiden tabs

New Frontier bass tab

IRON MAIDEN
NEW FRONTIER
BASS TAB
TABBED BY ENDEMICBASS666



intro :
		
G--7----------10-----------5---------------------|
D--7----------10-----------5----------5----------|
A--5-5-5-5-5--8--8-8-8-8---3-3-3-3-3--5----------|  x 3
E-------------------------------------3-3-3-3-3--|

G--3----------------5----------------|
D--3----------------5----------------|
A--1-1-1-1-1-1-1-1--3-3-3-3-3-3-3-3--|
E------------------------------------|



fill :

G--9------------------------------|
D--9-666-777-999-----------10-9---|
A--7--------------7-7-7-7---------| x2
E---------------------------------|



verse :

G--9------------------------------|
D--9-666-777-999-----------10-9---|
A--7--------------7-7-7-7---------| x2
E---------------------------------|

G--7-----------------------------------|
D--7-444-555-777-----------2-3-5-------|
A--5--------------5-5-5-5--------------|
E--------------------------------------|



repeat fill (x1)


repeat verse


repeat fill (x1)


bridge :
				1.          2.
                         		          ___________  ________
G--2----------3----------5----------3----------|--3--5--3--|--------|
D--2----------3----------5----------3----------|--3--5--3--|--3--5--|
A--0-0-0-0-0--1-1-1-1-1--3-3-3-3-3--1-1-1-1-1--|--1--3--1--|--3--5--|
E----------------------------------------------|-----------|--1--3--|


chorus :
		x 3
  ___________________________________________        (last time)
G--7-------------------------------------------|--3------------5------------|
D--7----------3----------5----------5----------|--3------------5------------|
A--5-5-5-5-5--3----------3-3-3-3-3--5----------|--1-1-1-1-1-1--3-3-3-3-3-3--|
E-------------1-1-1-1-1-------------3-3-3-3-3--|----------------------------|



repeat fill (x1)


repeat verse


repeat bridge


repeat chorus ("last time" part x 2 )



interlude :

G---7-----4-5-7--5-----5-4-----7-----4-5-7--3--5--|
D---7-----2-3-5--5-----3-2--5--7-----2-3-5--3--5--|
A---5--R---------3--R-------3--5--R---------1--3--|  x 2
E-------------------------------------------------|


riff under the first guitar solo (x4):

G---7----------------------5----------------------|
D---7---------222-333-555--5---------333-222------|
A---5-5-5-5-5--------------3-3-3-3-3---------333--|
E-------------------------------------------------|


G--7----------------------3----------5----------|
D--7---------222-333-555--3----------5----------|
A--5-5-5-5-5--------------1-1-1-1-1--3-3-3-3-3--|
E-----------------------------------------------|


riff under the following musical part (x2) :

G--3----------3----------3----------3----------
D--3----------3----------3----------3----------
A--1-1-1-1-1--1-1-1-1-1--1-1-1-1-1--1-1-1-1-1--
E----------------------------------------------

G--5----------5----------5----------5----------|
D--5----------5----------5----------5----------|
A--3-3-3-3-3--3-3-3-3-3--3-3-3-3-3--3-3-3-3-3--|
E----------------------------------------------|

then
G--------------|
D--4----5---7--|
A--------------|
E--------------|




repeat bridge part



repeat chorus part  (x2)  (and x2 the "last time" bar)



repeat "riff under the first guitar solo" part (x2)



ending note :

G--7---|
D--7---|
A--5/--|
E------|


END.
  development and support by
dmitry ivanov