rock
 
|tablatures   |lyrics   |discussion forums   |more tabs @ XGuitar.com

Iron Maiden tabs

Moonchild bass tab

Iron Maiden - Moonchild
Tabbed By: dead kyle
Email: kyle19015@yahoo.com

Tuning: Standard (E A D G)

great song to work those chops out on.

I am sure this is 100% correct.

Any questions or comments you can reach

me at kyle19015@yahoo.com

Hope you enjoy!!!

   guitar intro
G|---------------||
D|---------------||
A|------r--------||
E|---------------||






  A
                             2x
G|--------------|----------------||
D|--------------|---------------.||
A|------w-------|------w--------.||
E|------0-------|-----(0)--------||



   B


G|-----------------|----------------|----------------|----------------||
D|--q-----q--------|----------------|----------------|----------------||
A|--7--q--5--q-----|-------w--------|--q--q--q--q----|-------w--------||
E|-----7------5----|------(5)-------|--7--3--5--0----|------(0)-------||



                                                                   2x
G|-----------------|----------------|----------------|----------------||
D|--q-----q--------|----------------|----------------|----------------||
A|--7--q--5--q-----|-------w--------|--q--q--q--q----|-------w--------||
E|-----7-----5-----|------(5)-------|--7--3--5--2----|------(2)-------||



   C


G|----------------|----------------|-----------------------------------||
D|----------------|----------------|-----------------------------------||
A|--q--q--q--q----|--q--q--q--q----|--s-s-s-s-s-s-s-s-s-s-s-s-s-s-s-s--||
E|--0--0--0--0----|--0--0--0--0----|--0-0-0-0-0-0-0-0-0-0-0-0-0-0-0-0--||


                                  h p
G|------------------s--s--s--s--s--s--s-----||
D|-----------------14-14-14-14-14-12-14--s--||
A|-s-s-s-s-s-s-s-s----------------------14--||
E|-0-0-0-0-0-0-0-0--------------------------||


D  (verse)                            D1

                          3x
G|----------------------------|----------------------------||
D|----3-----s-s-s-s-s-s-s-s--.|-----3-----s-s-s-s-s-s-s-s-.||
A|-q--q--q--7-7-7-7-7-7-7-7--.|--q--q--q--3-3-3-3-4-4-5-6-.||
E|-0--0--0--------------------|--0--0--0-------------------||




 Play  D  and  D1  3x all together


 Then on the fourth time after you play D 3x, play this


D2


                          1x
G|-----3----------------------||
D|--q--q--q--s-s-s-s-s-s------||
A|--3--3--5--5-5-5-5-5-3-s-s--||
E|-----------------------5-3--||


E (chrous)


G|-----3-----------------------|-----3------s-s-s-s-s-s-s-s--||
D|--q-----q---s-s-s-s-s-s-s-s--|--q-----q---7-7-7-7-7-7-8-9--||
A|--7--q--7---7-7-7-7-7-7-7-7--|--7--q--7--------------------||
E|-----0-----------------------|-----0-----------------------||



G|-----3----------------------l-----3------s-s-s-s-s-s-s-s--||
D|--q--q--q---s-s-s-s-s-s-s-s-l--q--q--q---5-5-5-5-5-5-6-7--||
A|--5--5--5---5-5-5-5-5-5-5-5-l--5--5--5--------------------||
E|----------------------------l-----------------------------||



                            2x
G|-----3-----------------------||
D|--q--q--q---s-s-s-s-s-s-s-s--||
A|--3--3--3---3-3-3-3-3-3-3-3--||
E|-----------------------------||


                               *
G|----3-----------------------|----3-----------------------||
D|-q--q--q---s-s-s-s-s-s-s-s--|-q--q--q---s-s-s-s-s-s-s-s--||
A|-5--5--5---5-5-5-5-5-5-5-5--|-5--5--5---3-3-3-3-3-3-5-6--||
E|----------------------------|----------------------------||


Back to the verse part

then the chrous , but play it 2x

* = instead of playing this, play this on the 2nd x



G|-----3------s-s-s-s-s-s-s-s--||
D|--q--q--q---5-5-5-5-5-5-6-7--||
A|--5--5--5--------------------||
E|-----------------------------||


F (bridge)

                                                            2x
G|-----3------------------------|-----3-----------------------||
D|.--q--q--q---s-s-s-s-s-s-s-s--|--q--q--q---s-s-s-s-s-s-s-s--||
A|.--2--2--2---2-2-2-2-2-2-2-2--|--3--3--3---3-3-3-3-3-3-3-3--||
E|------------------------------|-----------------------------||

  1st time

G|----3-----------------------|----------------||
D|-q--q--q---s-s-s-s-s-s-s-s--|------\--------.||
A|-2--2--2---2-2-2-2-2-2-2-2--|-------:-------.||
E|----------------------------|--------\-------||

   2nd time


G|-----3----------------------|-----3-----------------------||
D|--q--q--q--s-s-s-s-s-s-s-s--|--q--q--q---s-s-s-s-s-s-s-s--||
A|--0--0--0--0-0-0-0-2-2-3-3--|--2--2--2---2-2-2-2-2-2-2-2--||
E|----------------------------|-----------------------------||




G (solo)

                           h
G|-----3------------------s-s--|--4--4--4---4-4-4-4-4-4-4-4--||
D|--q--q--q---s-s-s-s-s-s-2-4--|--q--q--q---s-s-s-s-s-s-s-s--||
A|--2--2--2---2-2-2-2-2-2------|-----3-----------------------||
E|-----------------------------|-----------------------------||

                                       1st ending

G|--4-4-4-4-2-2-2-2--s-s-s-s-s-s-s-s--|-s-s-s-s--------------------------||
D|--s-s-s-s-s-s-s-s--5-5-5-5-4-4-4-4--|-2-2-2-2-s-s-s-s-s-s-s-s-s-s-s-s--||
A|------------------------------------|---------5-5-5-5-4-4-4-4-0-0-0-0--||
E|------------------------------------|----------------------------------||

2nd ending


G|--s-s-s-s--------------------------||
D|--2-2-2-2-s-s-s-s-s-s-s-s-s-s-s-s--||
A|----------5-5-5-5-4-4-4-4-2-2-2-2--||
E|-----------------------------------||



H
                                    3x
G-------------------------------------||
D|--s-s-s-s-s-s-s-s-s-s-s-s-s-s-s-s--.||
A|--0-0-0-0-0-0-0-0-0-0-0-0-0-0-0-0--.||
E|------------------------------------||


I
                                1x

G|-s-s-s-s-s-s-s-s-s-s-s-s-s-s-s-s--||
D|-2-2-2-2-3-3-3-3-5-5-5-5-6-6-6-6--||
A|----------------------------------||
E|----------------------------------||

J
                                 2x

G|-s-s-s-s-s-s-s-s-s-s-s-s-s-s-s-s--||
D|-7-7-7-7-7-7-7-7-7-7-7-7-7-7-7-7--||
A|----------------------------------||
E|----------------------------------||

K


G|-14-14-14-14-15-15-15-15--12-12-12-12-14-14-14-14--||
D|--s--s--s--s--s--s--s--s---s--s--s--s--s--s--s--s--||
A|---------------------------------------------------||
E|---------------------------------------------------||


G|-10-10-10-10-12-12-12-12-12--9-9-9-9-10-10-10-10--||
D|--s--s--s--s--s--s--s--s--s--s-s-s-s--s--s--s--s--||
A|--------------------------------------------------||
E|--------------------------------------------------||


L

       3                      4x 1st and 3rd endings
G|--q---------------------------|------------------------------||
D|--2--q--q---s-s-s-s-s-s-s-s--.|-----3-----------------------.||
A|-----2--1---1-1-1-1-1-1-1-1--.|--q--q--q---s-s-s-s-s-s-s-s--.||
E|------------------------------|--3--0--0---0-0-0-0-0-0-0-0---|

2nd and fourth endings

G|-----3-----------------------||
D|--------q---s-s-s-s-s-s-s-s--||
A|--q--q--5---5-5-5-5-5-5-5-5--||
E|--3--0-----------------------||

H 2x

M


G|-----------------------------------||
D|--s-s-s-s-s-s-s-s-s-s-s-s-s-s-s-s--||
A|--0-0-0-0-2-2-2-2-3-3-3-3-5-5-5-5--||
E|-----------------------------------||


                                  1x
G|---------s-s-s-s-s-s-s-s-s-s-s-s--||
D|-s-s-s-s-4-4-4-4-5-5-5-5-6-6-6-6--||
A|-7-7-7-7--------------------------||
E|----------------------------------||

J 2x

K 2x

Bridge 2x  1st and 2nd ending

G (solo) 2x  1st and 2nd endings

Chrous 2x  1st and 2nd endings   * ending the 2nd time


N

              4x
G|--------------||
D|--------------||
A|--q--q--q--q--||
E|--0--0--0--0--||

O


G|-----------------------------s-s-s-s--||
D|-s-s-s-s-s-s-s-s--s--s--s--s-7-7-7-7--||
A|-7-7-7-7-8-8-8-8-10-10-10-10----------||
E|--------------------------------------||


G|-s-s-s-s--s--s--s--s--7-7-7-7-8-8-8-8--||
D|-9-9-9-9-10-10-10-10--s-s-s-s-s-s-s-s--||
A|---------------------------------------||
E|---------------------------------------||


G|-9-9-9-9-9-9-9-9-9-9-9-9-9-9-9-9---||
D|-s-s-s-s-s-s-s-s-s-s-s-s-s-s-s-7---||
A|-------------------------------7---||
E|-------------------------------s---||


 Q= quater note   e= eighth note

 w= whole note    s= sixteenth note

 r= rest          h= hammer on

 p= pull off      3= triplet notes

 p= pull off
  development and support by
dmitry ivanov