rock
 
|tablatures   |lyrics   |discussion forums   |more tabs @ XGuitar.com

Iron Maiden tabs

Man On The Edge bass tab

                Man on the Edge (Bayley/Gers)
                From the album "The X Factor"
                BASS TAB
                Trancribed by Vinicius Neves (eneves@sti.com.br)

  Intro
  |--------|--------|-----------|---------|--------------------|
  |--------|--------|-----------|---------|--------------------|
  |--------|--------|-----------|---------|--------------------|
  |--5-----|--1-----|--10---12--|--1------|--1-1-1-1--1-1-1-1--|
                                           8 times

  Verse
  |---------------|---------------|----------------|---------------|
  |---------------|--4------------|--5-------------|--7------------|
  |--3-5-5-5-5-5--|----5-5-5-5-5--|----5-5-5-5-5---|----5-5-5-5-5--|
  |---------------|---------------|----------------|---------------|

  |----------------|---------------|---------------|---------------|
  |----------------|---------------|---------------|---------------|
  |----------------|--4------------|--5------------|--7------------|
  |--3-5-5-5-5-5---|----5-5-5-5-5--|----5-5-5-5-5--|----5-5-5-5-5--|

  |---------------|---------------|---------------|---------------|
  |---------------|--4------------|--5------------|--7------------|
  |--3-5-5-5-5-5--|----5-5-5-5-5--|----5-5-5-5-5--|----5-5-5-5-5--|
  |---------------|---------------|---------------|---------------|

  |---------------|---------------|---------------|---------------|
  |---------------|---------------|---------------|---------------|
  |---------------|--4------------|--5------------|--7------------|
  |--3-5-5-5-5-5--|----5-5-5-5-5--|----5-5-5-5-5--|----5-5-5-5-5--|

  |---------------|---------------|---------------|---------------| 
  |---------------|---------------|---------------|---------------|  
  |---------------|---------------|---------------|--3-3-3-3-3-3--| 
  |--0-0-0-0-0-0--|--0-0-0-0-0-0--|--1-1-1-1-1-1--|---------------| 

  |---------------|---------------|---------------|---------------|
  |---------------|---------------|---------------|---------------|
  |---------------|---------------|---------------|--3-3-3-3-3-3--|
  |--0-0-0-0-0-0--|--0-0-0-0-0-0--|--1-1-1-1-1-1--|---------------|

  |---------------|---------------|---------------|---------------|
  |---------------|---------------|---------------|---------------|
  |---------------|---------------|---------------|--3-3-3-3-3-3--|
  |--0-0-0-0-0-0--|--0-0-0-0-0-0--|--1-1-1-1-1-1--|---------------|

  |---------------|---------------|---------------|---------------|
  |---------------|---------------|---------------|---------------|
  |--5-5-5-5-5-5--|--7-7-7-7-7-7--|--7-7-7-7-7-7--|--7-7-7-7-7-7--|
  |---------------|---------------|---------------|---------------|

  |---------------|---------------|---------------|---------------|
  |---------------|---------------|---------------|---------------|
  |--7-7-7-7-7-7--|--7-7-7-7-7-7--|--7-7-7-7-7-7--|--7-7-7-7-7-7--|
  |---------------|---------------|---------------|---------------|

  |---------------|---------------|----------------------------------|
  |---------------|---------------|---------12-12-10-10-9-9-9-7-7-7--|
  |--7-7-7-7-7-7--|--7-7-7-7-7-7--|--7-7-7---------------------------|
  |---------------|---------------|----------------------------------|


  Chorus

  |-------------|-------------|-----------|-----------|------------------|
  |-------------|-------------|-----------|-----------|------------------|
  |-------------|-------------|-----------|-----------|------------------|
  |--5-5-5-5-5--|--5-5-5-5-5--|--1-1-1-1--|--1-1-1-1--|--10-10-10-10-10--|

  |------------------|------------------------|------------------------|
  |------------------|------------------------|------------------------|
  |------------------|------------------------|------------------------|
  |--10-10-10-10-10--|--10-12-12-12-12-12-12--|--10-12-12-12-12-12-12--|

  |-------------|-------------|-------------|-------------|-----------------|
  |-------------|-------------|-------------|-------------|-----------------|
  |-------------|-------------|-------------|-------------|-----------------|
  |--5-5-5-5-5--|--5-5-5-5-5--|--1-1-1-1-1--|--1-1-1-1-1--|--10-10-10-10-10-|

  |------------------|------------------------|------------------------|
  |------------------|------------------------|------------------------|
  |------------------|------------------------|------------------------|
  |--10-10-10-10-10--|--10-12-12-12-12-12-12--|--10-12-12-12-12-12-12--|

  Solo

  |---------------|---------------|---------------|---------------|
  |---------------|---------------|---------------|---------------|
  |---------------|---------------|---------------|---------------|
  |--5-5-5-5-5-5--|--5-5-5-5-5-5--|--5-5-5-5-5-5--|--5-5-5-5-5-5--|

  |---------------|---------------|---------------|---------------|
  |---------------|---------------|---------------|---------------|
  |---------------|---------------|---------------|---------------|
  |--7-7-7-7-7-7--|--7-7-7-7-7-7--|--7-7-7-7-7-7--|--7-7-7-7-7-7--|

  |---------------------|---------------------|
  |---------------------|---------------------| Twice
  |---------------------|---------------------|
  |--10-10-10-10-10-10--|--10-10-10-10-10-10--|

  |---------------------|---------------------|
  |---------------------|---------------------| Twice
  |---------------------|---------------------|
  |--12-12-12-12-12-12--|--12-12-12-12-12-12--|

  |---------------|---------------|---------------|---------------|
  |---------------|---------------|---------------|---------------|
  |---------------|---------------|---------------|---------------|
  |--5-5-5-5-5-5--|--5-5-5-5-5-5--|--7-7-7-7-7-7--|--7-7-7-7-7-7--|

  |---------------------------|---------------------|
  |---------------------------|---------------------|
  |---------------------------|---------------------|
  |--10-10-10-10-10-10-10-10--|--10-10-10-10-10-10--|

  |---------------------------|---------------------|
  |---------------------------|---------------------| Twice
  |---------------------------|---------------------|
  |--12-12-12-12-12-12-12-12--|--12-12-12-12-12-12--|

  |---------------|---------------|---------------|---------|
  |---------------|---------------|---------------|---------| 4 times
  |---------------|---------------|---------------|---------|
  |--7-7-7-7-7-7--|--7-7-7-7-7-7--|--7-7-7-7-7-7--|--5-9-5--|

  |---------------------|---------------------|---------------------|----------|
  |---------------------|---------------------|---------------------|----------| Twice
  |---------------------|---------------------|---------------------|----------|
  |--10-10-10-10-10-10--|--10-10-10-10-10-10--|--10-10-10-10-10-10--|--8-12-8--|

  |---------------|---------------|---------------|---------|---------------|
  |---------------|---------------|---------------|---------|---------------|
  |---------------|---------------|---------------|---------|---------------|
  |--3-3-3-3-3-3--|--3-3-3-3-3-3--|--3-3-3-3-3-3--|--2-5-2--|--3-3-3-3-3-3--|

  |---------------|-----------|-------------------|-------------------|
  |---------------|-----------|-------------------|-------------------|
  |---------------|-----------|-------------------|-------------------|
  |--3-3-3-3-3-3--|--3-5-6-7--|--5-5-5-5-5-5-5-5--|--5-5-5-5-5-5-5-5--|

  |-------------------|-------------------|-------------------|
  |-------------------|-------------------|-------------------|
  |-------------------|-------------------|-------------------|
  |--5-5-5-5-5-5-5-5--|--5-5-5-5-5-5-5-5--|--5-5-5-5-5-5-5-5--|

  |-------------------|-------------------|-------------------|
  |-------------------|-------------------|-------------------|
  |-------------------|-------------------|-------------------|
  |--5-5-5-5-5-5-5-5--|--5-5-5-5-5-5-5-5--|--5-5-5-5-5-5-5-5--|


  Outro

  |-------------|-------------|-------------|-------------|
  |-------------|-------------|-------------|-------------|
  |-------------|-------------|-------------|-------------|
  |--0-0-0-0-0--|--1-1-1-1-1--|--2-2-2-2-2--|--3-3-3-3-3--|

  |-------------------|-------------------|-------------|
  |-------------------|-------------------|-------------|
  |-------------------|-------------------|-------------|
  |--5-5-5-5-5-5-5-5--|--5-5-5-5-5-5-5-5--|--5----------|



  The order is:

  Intro
  Verse
  Chorus
  Verse
  Chorus
  Solo
  Verse
  Chorus (4 times)
  Outro

                        UP THE IRONS!!!!!!






  development and support by
dmitry ivanov