rock
 
|tablatures   |lyrics   |discussion forums   |more tabs @ XGuitar.com

Iron Maiden tabs

Losfer Words guitar tab

From: principal@biosys.net
Subject: Losfer words             - IRON MAIDEN


Intro (both guitars)

|----------------------------------------------------------------------------|
|----------------------------------------------------------------------------|
|----------------------------------------------------------------------------|
|------7------5------4------5------4------2----------------------------------|
|-000-----00-----00-----00-----00-----00-----00-3-2-3------------------------|
|----------------------------------------------------------------------------|
PM...     ..     ..     ..     ..     ..     .. . . .

|----------------------------------------------------------------------------|
|----------------------------------------------------------------------------|
|----------------------------------------------------------------------------|
|-------7------5------4------5------4------5-5-5----------------------------------------|
|-000-----00-----00------00-----00-----00--3-3-3----------------------------------------|
|----------------------------------------------------------------------------|
PM...     ..     ..      ..     ..     ..  . . .

|----------------------------------------------------------------------------|
|----------------------------------------------------------------------------|
|-------------------------------------------------------9-9-9-9--------------|
|-------------------------------------------------------7-7-7-7--------------|
|--------5-5-5---------------------------5-5-5-------------------------------|
|-000000-3-3-3-000000-5-5-5-5-3-2-000000-3-3-3---000000----------------------|
PM......       ......             ......


Section 1

Guitar 1
|--12-12-13-15-13-12----141414-151515-171717-17p15p14------------------------|
|13~-----------------15~------------------------------16~-16-11-11-13-15-13~-|
|----------------------------------------------------------------------------|
|----------------------------------------------------------------------------|
|----------------------------------------------------------------------------|
|----------------------------------------------------------------------------|

Guitar 2
|----------------------------------------------------------------------------|
|----------------------------------------------------------------------------|
|--------------------------777-999-111111-9p7-----/15~-15-10~-10-12-14-12~---|
|-----10-10-12-14-12-10------------(11's)----10------------------------------|
|--7~-------------------9----------------------------------------------------|
|----------------------------------------------------------------------------|

Second Section 

Guitar 1
|----------------------------------------------------------------------------|
|----------------------------------------------------------------------------|
|----------------------------------------------------------------------------|
|-5p4p0---8times--7p5p0----8times-------------8~---3----3--5--7-5------------|
|---------------------------------------------6~---1----1--3--5-3------------|
|----------------------------------------------------------------------------|

Guitar2
|----------------------------------------------------------------------------|
|----------------------------------------------------------------------------|
|----------------------------------------------------------------------------|
|-7-77--8times----5-55---8times---8----------3---------5------------------------------------------|
|-5-55------------3-33------------6-666666---1-111111--3-3333333---------------------------------------|
|----------------------------------------------------------------------------|
PM. ..            . ..              ......     ......    .......

Then, after 2 times

Guitar 1
|----------------------------------------------------------------------------|
|----------------------------------------------------------------------------|
|----------------------------------------------------------------------------|
|-5p4p0---8times--7p5p0----8times--------------8~--3--3-5-7-5----------------|
|----------------------------------------------6~--1--1-3-5-3----------------|
|----------------------------------------------------------------------------|

Guitar 2
|----------------------------------------------------------------------------|
|----------------------------------------------------------------------------|
|----------------------------------------------------------------------------|
|--7--let ring----5-let ring--2-let ring-------------------------------------|
|--5--------------3-----------0----------3-let ring--5-let ring--------------|
|----------------------------------------1-----------3-----------------------|


Solo rythm

|----------------------------------------------------------------------------|
|----------------------------------------------------------------------------|
|----------------------------------------------------------------------------|
|----------------------------------------------------------------------------|
|--5555-5555-5555-5555-3333-3333-3333-3333--0000-0000-000--------------------|
|---------------------------------------------------------11111--3333--------|

Solo (almost close)                                 
|-----------------------------------------------------------------------------
|-----------------------------------------------------------------------------
|--0-7p0-5p0-4p0-2p0---------------------------12-12~--10----10---------------
|--------------------5p0-4p0-2p0------------10------------12----12-11-10--------------
|---------------------------------3-2-----------------------------------------
|-------------------------------------3~--------------------------------------

 add some random A.H
----------------------------------------------------------------------|
----------------------------------------------------------------------|
-/12-12-14-11-------------------then comes a fast run-----------------|
--------------14-12-11----------which i don't know so you-------------|
------------------------12-10---will have to figure out the rest------|
----------------------------------------------------------------------|


Section 3 

Guitar 1
|--0--12--00--7--00--8--00--5--00--7--00--3--00--5--00--2--------------------|
|----------------------------------------------------------------------------|
|----------------------------------------------------------------------------|
|----------------------------------------------------------------------------|
|----------------------------------------------------------------------------|
|----------------------------------------------------------------------------|

Guitar 2
|----------------------------------------------------------------------------|
|----------------------------------------------------------------------------|
|----------------------------------------------------------------------------|
|------------------999--7-----------------------999--------------------------|
|---777---101010----------10p9-----777---101010------9h10h12-----------------|
|----------------------------------------------------------------------------|


Section 4

Guitar 1
|-------------------------------------------------------------------------13-|
|-/11~-10~-8-10-8----X2---/13~-11~-10-11-10-----X2-then-/13~-11~-10-11-10----|
|-----------------8~------------------------10~------------------------------|
|----------------------------------------------------------------------------|
|----------------------------------------------------------------------------|
|----------------------------------------------------------------------------|

Guitar 2
|----------------------------------------------------------------------------|
|----------------------------------------------------------------------------|
|----------------------------------------------------------------------------|
|---88xx88xx88xx8888--X2-1010xx1010xx1010xx10101010-X2--------------------------------------------------------------------|
|---66xx66xx66xx6666-----8-8-xx8-8-xx8-8-xx8-8-8-8--------------------------------------------------------|
|----------------------------------------------------------------------------|

Outro

Guitar 1
|----------------------------------------------------------------------------|
|--5--3----------3--5--3---------3--5--3---------3--5--3---------------------|
|--------5--3--5---------5--3--5---------5--3--5---------5--3----------------|
|----------------------------------------------------------------------------|
|----------------------------------------------------------------------------|
|----------------------------------------------------------------------------|

Guitar 2
|----------------------------------------------------------------------------|
|----------------------------------------------------------------------------|
|--5--3--2----2--3--5--3--2-----2--3--5--3--2---2--3--5--3--2----------------|
|-----------5----------------5----------------5----------------5-------------|
|----------------------------------------------------------------------------|
|----------------------------------------------------------------------------|

Fin.
tomado de la version en vivo.

++++++++++++++++++++++++++++++++++++++++++++++++++++++++++++


From: mcb1@violet.berkeley.edu ()


Losfer Words
by Iron Maiden

transcribed by Rob Schenk

intro

--------------------------------------------
--------------------------------------------
--------------------------------------------
--------------------------------------------
-000-12-00-10-00-9-00-10-00-9-00-7-00-3-2-3-
--------------------------------------------

--------------------------------------------
--------------------------------------------
--------------------------------------------
--------------------------------------5-5-5-
-000-12-00-10-00-9-00-10-00-9-00------5-5-5-
--------------------------------------3-3-3-

----------------------------------------------
----------------------------------------------
----------------------------------------------
----------------------------------------------
--------5-5-5---------------------------5-5-5-
-000000-3-3-3-000000-5-5-5-5-3-2-000000-3-3-3-

--------------------------------------------
--------------------------------------------
--------9-9-9-9-----------------------------
--------7-7-7-7-----------------------------
--------------------------------------------
-000000-------------------------------------

Theme 1

----12-12-13-15-13-12-----14-14-14-15-15-15-17-17-17-17p15p14-
-13-------------------15--------------------------------------
--------------------------------------------------------------
--------------------------------------------------------------
--------------------------------------------------------------
--------------------------------------------------------------

--------------------------------------------
-16-/11-11-13-13/15-13----------------------
--------------------------------------------
--------------------------------------------
--------------------------------------------
--------------------------------------------

Theme 2 (play under solo also)

-----------------------------------------------
-----------------------------------------------
-5p4p0-5p4p0-5p4p0-5p4p0-7p5p0-7p5p0-7p5p0-7p5p0-
-----------------------------------------------
-----------------------------------------------
-----------------------------------------------

----------------------------------------------
----------------------------------------------
-8----3---3-5-7-5-----------------------------
-8----3---3-5-7-5-----------------------------
-6----1---1-3-5-3-----------------------------
----------------------------------------------

Theme 3 (repeat)

-12-00-7-00-8-00-5-00-7-00-3-00-5-00-2-----
-------------------------------------------
-------------------------------------------
-------------------------------------------
-------------------------------------------
-------------------------------------------

Theme 4

---------------------------------------
-/11-10v-8-10-8-------/11-10v-8-10-8----
----------------8v------------------8--
---------------------------------------
---------------------------------------
---------------------------------------

-----------------------------------------
-/13-11v-10-11--------/13-11v-10-11-10----
---------------10v--------------------10v-
-----------------------------------------
-----------------------------------------
-----------------------------------------

last fill

----------11bv-------------------------
-10-11-10------------------------------
---------------------------------------
---------------------------------------
---------------------------------------
---------------------------------------

repeat intro and theme 1

fill for theme 1 at end

-15p13p12-15p13p12-15p13p12-15p13p12----
---------------------------------------
--------------------------------------
--------------------------------------
--------------------------------------
--------------------------------------

outro

---------------------------------------------
-5-3-------3-5-3-------3-5-3-------3-5-3-----
-----5-3-5-------5-3-5-------5-3-5-------5-3-
---------------------------------------------
---------------------------------------------
---------------------------------------------






  development and support by
dmitry ivanov