rock
 
|tablatures   |lyrics   |discussion forums   |more tabs @ XGuitar.com

Iron Maiden tabs

Lord Of The Flies guitar tab

          " Lord Of The Flies " - Iron Maiden / Tabed by Amir .H. 
                  
  Repeat a couple of times : (Intro)
-]-----------------------------------------------------------------------
-]-----------------------------------------------------------------------
-]-----------------------------------------------------------------------
-]--7------9-------7-------9---2-0h2-0h2---------------------------------
-]--7------9-------7-------9---2-0h2-0h2---------------------------------
-]---0-0-0---0-0-0---0-0-0-----------------------------------------------
     x x x   x x x   x x x 

   Well this is the intro , just change the rythm from time to time ,
   Best you hear it from the masters themselfs - Murray and Gers .

-]------------------|------------------------------------------
-]- ----------------|------------------------------------------
-]---9--12--7--9----|--9--12--7--------------------------------
-]---9--12--7--9----|--9--12--7--------------------------------
-]---7--10--5--7----|--7--10--5--------------------------------
-]------------------|------------------------------------------


-]--------------------------|------------------------------------------
-]- ------------------------|------------------------------------------
-]---9--12--7--9------------|--9--12--7--------------------------------
-]---9--12--7--9------------|--9--12--7--------------------------------
-]---7--10--5--7------------|--7--10--5--------------------------------
-]--------------------------|------------------------------------------

  I dont care for this  ...


-]--------------------------|------------------------------------------
-]- ------------------------|------------------------------------------
-]---9--12--7--9------------|--9--12--7--------------------------------
-]---9--12--7--9------------|--9--12--7--------------------------------
-]---7--10--5--7------------|--7--10--5--------------------------------
-]--------------------------|------------------------------------------

   I just want to live ...

-]--------------------------|------------------------------------------
-]- ------------------------|------------------------------------------
-]---9--12--7--9------------|--9--12--7--------------------------------
-]---9--12--7--9------------|--9--12--7--------------------------------
-]---7--10--5--7------------|--7--10--5--------------------------------
-]--------------------------|------------------------------------------
   
  Fate has brought to this ...

-]--------------------------|------------------------------------------
-]- ------------------------|------------------------------------------
-]---9--12--7--9------------|--9--12--7--------------------------------
-]---9--12--7--9------------|--9--12--7--------------------------------
-]---7--10--5--7------------|--7--10--5--------------------------------
-]--------------------------|------------------------------------------

  What was meant to be ....


-]---------------------------------------------------------------------
-]---------------------------------------------------------------------
-]---5------------------7-----------------9--9--7-5--------------------
-]---5------------------7-----------------9--9--7-5--------------------
-]---3------------------5-----------------7xx7--5-3--------------------
-]---------------------------------------------------------------------

  I've found...   this living in danger (and so on until the chorus)



  Chorus :
-]---------------------------------------------------------------------
-]---------------------------------------------------------------------
-]---9---------------7-----------5-----------4-----5-5-5---7-----------
-]---9---------------7-----------5-----------4-----5-5-5---7-----------
-]---7---------------5-----------3-----------2-----3-3-3---5-----------
-]---------------------------------------------------------------------

 Saints and ...  something..    we are ..   flies
 

 Here goes the solo, Its just by ear, so it ainīt perfect, but its close !!!

-]--------------------------------------------------------------
-]--------------------------------------------------------------
-]-15h17--17b--17b--17b--17-15-14----15-17b-17b-17b--22--22b----
-]--------------------------------------------------------------
-]--------------------------------------------------------------
-]--------------------------------------------------------------

-]--------------------------------------------------------------
-]----------22-19-17-16-17--------------------------------------
-]-22b-22b-------------------12-12b11----11-12------------------
-]------------------------------------12------------------------
-]--------------------------------------------------------------
-]--------------------------------------------------------------

-]----------------19-19-19-19--17-15-14-15-14-------------------
-]---------------------------------------------15-17------------
-]--9-9-9-9--7--------------------------------------------------
-]--------------------------------------------------------------
-]--------------------------------------------------------------
-]--------------------------------------------------------------

 Have fun , Look for more tabs from Amir .h. LTD . :D

  
  " Where do we go from here? And should we really care , 
    The End is finelly here, God have Mercy"

    Words of Wisdom by my fav - Dave Mustaine - MegadetH!
  development and support by
dmitry ivanov