rock
 
|tablatures   |lyrics   |discussion forums   |more tabs @ XGuitar.com

Iron Maiden tabs

Judgement Of Heaven bass tab

IRON MAIDEN
JUDGMENT OF HEAVEN
BASS TAB
TABBED BY ENDEMICBASS666

intro:

G-----------------------------------------------------------|
D-----------------------------------------------------------|
A--7-7-7-7-7-7-5-7-7-7-7-7--9-9-9-9-9-9--6-6-6-7-7-7-6-6-6--|	(repeat many times)
E-----------------------------------------------------------|
then
G-----------------------------------------------------
D-----------------------------------------------------
A--5-5-5-5-5-5--4-4-4-4-4-4--7-7-7-7-7-7-6-6-6-6-6-6--
E-----------------------------------------------------
   "But that's the easy  way ..."

G---------------------------------------------|
D---------------------------------------------|
A--5-5-5-5-5-5-5-5--5-4-2-2-2-2-2-2-2-2-2-----|
E---------------------------------------------|


verse 1:

G--9----------7----------5-------------------|
D--9----------7----------5-------------------|
A--7-7-7-7-7--5-5-5-5-5--3-3-3-3-3-3-3-3-----|
E--------------------------------------------|


bridge:

G--3----------5----------7----------5----------7--7--7--7--5----|
D--3----------5----------7----------5----------7--7--7--7--5----|
A--1-1-1-1-1--3-3-3-3-3--5-5-5-5-5--3-3-3-3-3--5--5--5--5--3----|
E---------------------------------------------------------------|


verse 2:

G--9--9--9--9----------9---7--5--5--5--5----------7--7--7--777--|
D--9--9--9--9----------9---7--5--5--5--5----------7--7--7--777--|
A--7--7--7--7----------7---5--3--3--3--3----------5--5--5--555--|
E---------------------------------------------------------------|


G--9--9--9--9------9---7--5--5-----12-12--777---------|
D--9--9--9--9------9---7--5--5--5--12-12--777---------|
A--7--7--7--7------7---5--3--3--5--10-10--555---------|
E-------------------------------3---------------------|


chorus:


G--9--9--9----7--7--7----5--5--5----7--7--7--
D--9--9--9----7--7--7----5--5--5----7--7--7--
A--7--7--7----5--5--5----3--3--3----5--5--5--  x4
E--------------------------------------------


G--7--7--7--9--9--9--7--7---|
D--7--7--7--9--9--9--7--7---|
A--5--5--5--7--7--7--5--5---| x3
E---------------------------|


riff 1:

G--9--12--7--9--5--7----9--12--7--9--12--14----|
D--9--12--7--9--5--7----9--12--7--9--12--14----|
A--7--10--5--7--3--5----7--10--5--7--10--12----| x4
E----------------------------------------------|

  "Yeah!Yeah!"


repeat riff 1


interlude 1 (X2) :

G--------------------------------------------
D--------------------------------------------
A--5-7-8--5-7-8--5-7-8--5-7-8--5-7-8--5-7----
E--------------------------------------------


G---------------------------------------------
D----------------------------------5----------
A--5-7-8--5-7-8--5-7-8--5-7-8--5-7---8-7-5----
E---------------------------------------------


G-------------------------------------|
D-------------------------------------|
A--5-7-8--5-7-8--5-7-8--5-7-8--7-7----|
E-------------------------------------|


interlude 2 (x4) :

G--9--------------5--------------7----------------|
D--9--------------5--------------7----------------|
A--7-7-7-7-7-7-7--3-3-3-3-3-3-3--5-5-5-5-5-5-5-5--|
E-------------------------------------------------|



repeat riff 1


repeat chorus


repeat riff 1


ending note:


G--14----|
D--14----|
A--12/---|
E--------|


END.


TABBED BY ENDEMICBASS666


UP THE IRONS ! ! !
  development and support by
dmitry ivanov