rock
 
|tablatures   |lyrics   |discussion forums   |more tabs @ XGuitar.com

Iron Maiden tabs

Judas Be My Guide bass tab

#----------------------------------PLEASE NOTE--------------------------------#
#This file is the author's own work and represents their interpretation of the#
#song. You may only use this file for private study, scholarship, or research.#
#-----------------------------------------------------------------------------#
#-- File created with Instab - http://www.pconline.com/~smcarey/instab.html --#
#-----------------------------------------------------------------------------#

Author/Artist: Iron Maiden
Title: Judas Be My Guide
Album: Fear Of The Dark
Transcribed by: Paulo Canha
Email: pcanha@telepar.com.br

Any corrects, please, e-mail me.


 Intro
G------------------------------------------------------------------|
D------------------------------------------------------------------|
A---5----------------------5---------------------------------------|
E-5----------5-6---------5---------5-6-----6-6-6-6-6-6-3-3-3-3-3-3-|                                                                             


G-7---------------|-7---------------|-3---------------|-5---------------|
D-7---------------|-7---------------|-3---------------|-5---------------|
A-5-5-5-5-5-5-5-5-|-5-5-5-5-5-5-5-5-|-1-1-1-1-1-1-1-1-|-3-3-3-3-3-3-3-3-|
E-----------------|-----------------|-----------------|-----------------|                                                                             


G-7---------------|-7---------------|-3---------------|-5---------------|
D-7---------------|-7---------------|-3---------------|-5---------------|
A-5-5-5-5-5-5-5-5-|-5-5-5-5-5-5-5-5-|-1-1-1-1-1-1-1-1-|-3-3-3-3-3-3-3-3-|
E-----------------|-----------------|-----------------|-----------------|


 Verse (2x)
G-7---------------|-----------------|-----------------|-3---------------|
D-7---------------|-----------------|-5---------------|-3-------3-------|
A-5-5-5-5-5-5-5-5-|-5-5-5-5-5-5-5-5-|-5---------------|-1-1-1-1-3-------|
E-----------------|-----------------|-3-3-3-3-3-3-3-3-|---------1-1-1-1-|                                                                             


 Bridge
G-----------------|-----------------|-3---------------|-----------------|
D-----------------|---------5-------|-3---------------|-----------------|
A-5---5-5-7---7-7-|-8---8-8---------|-1-1-1-1-1-1-1-1-|-----------------|
E-----------------|-----------------|-----------------|-1-1-------1-1-1-|                                                                         


G-----------------|-----------------|-3---------------|-----------------|
D-----------------|---------5-------|-3---------------|-----------------|
A-5---5-5-7---7-7-|-8---8-8---------|-1-1-1-1-1-1-1-1-|-----------------|
E-----------------|-----------------|-----------------|-1-1-1-1-1-1-1-1-| 


 Chorus
G-7---------------|-7---------------|-3---------------|-5---------------|
D-7---------------|-7---------------|-3---------------|-5---------------|
A-5-5-5-5-5-5-5-5-|-5-5-5-5-5-5-5-5-|-1-1-1-1-1-1-1-1-|-3-3-3-3-3-3-3-3-|
E-----------------|-----------------|-----------------|-----------------|                                                                             


G-7---------------|-7---------------|-3---------------|-5---------------|
D-7---------------|-7---------------|-3---------------|-5---------------|
A-5-5-5-5-5-5-5-5-|-5-5-5-5-5-5-5-5-|-1-1-1-1-1-1-1-1-|-3-3-3-3-3-3-3-3-|
E-----------------|-----------------|-----------------|-----------------|


 Repeat Verse, Bridge & Chorus(2x) 


 Guitar Duet
G-7---------------|-7---------------|-3---------------|-3---------------|
D-7---------------|-7---------------|-3---------------|-3---------------|
A-5-5-5-5-5-5-5-5-|-5-5-5-5-5-5-5-5-|-1-1-1-1-1-1-1-1-|-1-1-1-1-1-1---3-|
E-----------------|-----------------|-----------------|-----------------|                                                                             


G-7---------------|-7---------------|-----------------|-3---------------|
D-7---------------|-7---------------|-5---------------|-3---------------|
A-5-5-5-5-5-5-5-5-|-5-5-5-5-5-5-5-5-|-5---------------|-1-1-1-1-1-1-1-1-|
E-----------------|-----------------|-3-3-3-3-3-3-3-3-|-----------------|                                                                             


 Interlude
G-3---------------|-5---------------|-7---------------|-5---------------|
D-3---------------|-5---------------|-7---------------|-5---------------|
A-1-1-1-1-1-1-1-1-|-3-3-3-3-3-3-3-3-|-5-5-5-5-5-5-5-5-|-3-3-3-3-3-3-3-3-|
E-----------------|-----------------|-----------------|-----------------|                                                                             


G-3---------------|-----------------|-----------------|-----------------|
D-3---------------|-5---------------|-----------------|-----------------|
A-1-1-1-1-1-1-1-1-|-3-3-3-3-3-3-3-3-|-00020002002002--|-00020002002002--|
E-----------------|-----------------|-----------------|-----------------|                                                                             


 Guitar Solo
G-7---------------|-7---------------|-3---------------|-3---------------|
D-7---------------|-7---------------|-3---------------|-3---------------|
A-5-5-5-5-5-5-5-5-|-5-5-5-5-5-5-5-5-|-1-1-1-1-1-1-1-1-|-1-1-1-1-1-1-1-1-|
E-----------------|-----------------|-----------------|-----------------|                                                                             


G-5---------------|-5---------------|-7---------------|-7---------------|
D-5---------------|-5---------------|-7---------------|-7---------------|
A-3-3-3-3-3-3-3-3-|-3-3-3-3-3-3-3-3-|-5-5-5-5-5-5-5-5-|-5-5-5-5-5-5-5-5-|
E-----------------|-----------------|-----------------|-----------------|                                                                             


G-7---------------|-7---------------|-3---------------|-3---------------|
D-7---------------|-7---------------|-3---------------|-3---------------|
A-5-5-5-5-5-5-5-5-|-5-5-5-5-5-5-5-5-|-1-1-1-1-1-1-1-1-|-1-1-1-1-1-1-1-1-|
E-----------------|-----------------|-----------------|-----------------|                                                                             


G-5---------------|-5---------------|-----------------|-----------------|
D-5---------------|-5---------------|-----------------|-----------------|
A-3-3-3-3-3-3-3-3-|-3-3-3-3-3-3-3-3-|-5-5-------7-7-7-|-8-8-8-----5-5-5-|
E-----------------|-----------------|-----------------|-----------------| 


 Repeat Chorus 2x
 

 Ending
G-----------------|-------------------|
D-----------------|-------------------|
A-00020002002002--|-00020002002002-5\-|
E-----------------|-------------------| 
			           End.


                                                                            
  development and support by
dmitry ivanov