rock
 
|tablatures   |lyrics   |discussion forums   |more tabs @ XGuitar.com

Iron Maiden tabs

Juanita guitar tab

JUANITA              



      E5          |                   |   A5          D5 
|-----------------|-------------------|----------------------------------------|
|-----------------|-------------------|----------------------------------------|
|-7---------------|-7^7--5--7--7--5---|--2-------2-----5-------5---------------|
|-7--2-------2----|-7^7--5--7--7--5---|--2-------2-----5-------5---------------|
|----2-------2----|-------------------|--0-0-0-0-0-----3-3-3-3-3---------------|
|----0-0-0-0-0----|-------------------|----------------------------------------|


  C5  D5  C5  B5  B5  B5  B5  B5 
|------------------------------------------------------------------------------|
|------------------------------------------------------------------------------|
|--5---7---5--4---4---4----4---4-----------------------------------------------|
|--5---7---5--4---4---4----4---4-----------------------------------------------|
|--3---5---3--2---2---2----2---2-----------------------------------------------|
|------------------------------------------------------------------------------|

I'M NEVER GOING ...
  E5  G5  A5   | C5  D5  E5     G5  A5   
|--------------|---------------------------------------------------------------|
|--------------|---------------------------------------------------------------|
|-9------------|--5--7---9-----------------------------------------------------|
|-9---5---7----|--5--7---9-------5---7-----------------------------------------|
|-7---5---7----|--3--5---7-------5---7-----------------------------------------|
|-0---3---5----|---------0-------3---5-----------------------------------------|

  E5  D5  C5  B5  |  C5  D5 
|-----------------|------------------------------------------------------------|
|-----------------|------------------------------------------------------------|
|-9---7---5---4---|--5---7-----------------------------------------------------|
|-9---7---5---4---|--5---7-----------------------------------------------------|
|-7---5---3---2---|--3---5-----------------------------------------------------|
|-----------------|------------------------------------------------------------|


                           |1. 
|--------------------------|--------------|------------------------------------|
|--------------------------|--------------|--14^14-12-14-14-12-----------------|
|----------12--------------|----------12--|------------------------------------|
|--12--14------14--12--14--|--12--14------|------------------------------------|
|--------------------------|--------------|------------------------------------|
|--------------------------|--------------|------------------------------------|


  FILL1      ______ ________
   C5  B5   |1. A5  |2. G5
|-----------|-------|----------------------------------------------------------|
|-----------|-------|----------------------------------------------------------|
|--5---4----|---2---|----------------------------------------------------------|
|--5---4----|---2---|---5------------------------------------------------------|
|--3---2----|---0---|---5------------------------------------------------------|
|-----------|-------|---3------------------------------------------------------|


  E5  D5  C5  B5  |  C5  D5  
|-----------------|------------------------------------------------------------|
|-----------------|------------------------------------------------------------|
|-9---7---5----4--|--5---7-----------------------------------------------------|
|-9---7---5----4--|--5---7-----------------------------------------------------|
|-7---5---3----2--|--3---5-----------------------------------------------------|
|-----------------|------------------------------------------------------------|


CODA:
  C5  B5  G5  G5  A5  C5  A5  A5  A5  A5  
|------------------------------------------------------------------------------|
|------------------------------------------------------------------------------|
|--5---4----------2---5---2---2---2---2----------------------------------------|
|--5---4---5---5--2---5---2---2---2---2----------------------------------------|
|--3---2---5---5--0---3---0---0---0---0----------------------------------------|
|----------3---3---------------------------------------------------------------|
  development and support by
dmitry ivanov