rock
 
|tablatures   |lyrics   |discussion forums   |more tabs @ XGuitar.com

Iron Maiden tabs

Journeyman bass tab

Song: Jorneyman
 Band: Iron Maiden
 Album: Dance Of Death
 Transcribed by: Amaury Espinal (powerslave25@hotmail.com)
 Date: 4/24/2004


 Steve Harris play this song with an acoustic Bass, the acoustic Bass have a nice sound,
 if You don't have one, play it with electric Bass, it sounds cool too.



   (0:08)Intro            (0:10)               (0:12)                (0:14) Play x4 (0:08 to 0:41)
 G-|-----7--7---9---9---9-----7--7---9---9---9------3--3---5---5---5---------------------|----|---
 D-|---7--7--7----7---7-----7--7--7----7---7------3--3--3----3---3--------5--5---5--5--5-|-X4-|---
 A-|-5--------------------5---------------------1-----------------------5--5--5----5--5--|----|---
 E-|------------------------------------------------------------------3------------------|----|---


                                3rd time ent.lyrics
   (0:41)                (0:45)  x6 (0:41 to 1:29)  (1:30)"And the frag. (1:34)
 G-|-10--------------------9-------------------|----|-5---------7---------9--------------------
 D-|-10--------------------7-77-7-77-7-77-77-7-|-X6-|-5---------7---------7-77-7-77-7-77-77-7--
 A-|--8-88-8-88-8-88-88-8----------------------|----|-3-33-3-33-5-55-5-55----------------------
 E-|-------------------------------------------|----|------------------------------------------

 (1:38)"And the shad. (1:42)             (1:46)    (1:47)    (1:50)      (1:51)          (1:53)
 G-5---------7-----------------------------5---------7---------10---------12---------------5----------
 D-5---------7-----------------------------5---------7---------10---------12---------------5----------
 A-3-33-3-33-5-55-5-55---------------------3-33-3-33-5-55-5-55--8-88-8-88-10-1010-10-1010--3-33-3-33--
 E---------------------3-33-3-33-3-33-33-3------------------------------------------------------------

 (1:55)                          (2:00)Chorus (2:03)     (2:04)          (2:06) (2:07) Play x3 (2:00 to 2:21)
 G-7---------9-------------------|-9----------10----------12---------------3-----5----|----|-----------------
 D-7---------7-77-7-77-7-77-77-7-|-7-77-7-77--10----------12---------------3-----5----|-X3-|-----------------
 A-5-55-5-55---------------------|-------------8-88-8-88--10-1010-10-1010--1-11--3-33-|----|-----------------
 E-------------------------------|----------------------------------------------------|----|-----------------

 (2:22)Cont.Chorus"I now what I want...  (2:27)                (2:31)
 G-9----------10----------12--------------10--------------------14-------------------------
 D-7-77-7-77--10----------12---------------8-88-8-88-8-88-88-8--12-1212-12-12121212121212--
 A-------------8-88-8-88--10-1010-10-1010--------------------------------------------------
 E-----------------------------------------------------------------------------------------

   (2:35)                 (2:38)  x6 (2:35 to 3:18) (3:19)"In your life...
 G-|-10--------------------9-------------------|----|-5---------7---------9--------------------
 D-|-10--------------------7-77-7-77-7-77-77-7-|-X6-|-5---------7---------7-77-7-77-7-77-77-7--
 A-|--8-88-8-88-8-88-88-8----------------------|----|-3-33-3-33-5-55-5-55----------------------
 E-|-------------------------------------------|----|------------------------------------------

 (3:26)"And the shadows...               (3:33)"If you turn...                           (3:40)
 G-5---------7-----------------------------5---------7---------10---------12---------------5----------
 D-5---------7-----------------------------5---------7---------10---------12---------------5----------
 A-3-33-3-33-5-55-5-55---------------------3-33-3-33-5-55-5-55--8-88-8-88-10-1010-10-1010--3-33-3-33--
 E---------------------3-33-3-33-3-33-33-3------------------------------------------------------------

                                 (3:47)"I know what I want...     Play x3 (3:47 to 4:07)
 G-7---------9-------------------|-9----------10----------12---------------3-----5----|----|--
 D-7---------7-77-7-77-7-77-77-7-|-7-77-7-77--10----------12---------------3-----5----|-X3-|--
 A-5-55-5-55---------------------|-------------8-88-8-88--10-1010-10-1010--1-11--3-33-|----|--
 E-------------------------------|----------------------------------------------------|----|--

 (4:08)"Cont.Chorus                      (4:13)                (4:16)
 G-9----------10----------12--------------10--------------------14-------------------------
 D-7-77-7-77--10----------12---------------8-88-8-88-8-88-88-8--12-1212-12-12121212121212--
 A-------------8-88-8-88--10-1010-10-1010--------------------------------------------------
 E-----------------------------------------------------------------------------------------

   (4:20)Interlude(like intro)                  (4:24)                (4:26) Play x5 (4:20 to 4:59)
 G-|-----7--7---9---9---9-----7--7---9---9---9------3--3---5---5---5---------------------|----|----
 D-|---7--7--7----7---7-----7--7--7----7---7------3--3--3----3---3--------5--5---5--5--5-|-X5-|----
 A-|-5--------------------5---------------------1-----------------------5--5--5----5--5--|----|----
 E-|------------------------------------------------------------------3------------------|----|----

   (5:00)         (5:02)        (5:04)       (5:05)  Play x4 (5:00 to  5:31)
 G-|------------------------------------------------------------|----|------
 D-|-7-7-7--9-9-9--7-7-7--9-9-9--5-5-5-7-7-7-----5--5-----7--7--|-X4-|------
 A-|-------------------------------------------5--5--5--5--5--5-|----|------
 E-|-----------------------------------------3------------------|----|------

 (5:32)"In Your life...                   (5:39)"And the shadows...
 G-5---------7---------9--------------------5---------7------------------------------
 D-5---------7---------7-77-7-77-7-77-77-7--5---------7------------------------------
 A-3-33-3-33-5-55-5-55----------------------3-33-3-33-5-55-5-55----------------------
 E--------------------------------------------------------------3-33-3-33-3-33-33-3--

 (5:46)"If You turn to the light...              (5:53)"Then Your Jorneymans...
 G-5---------7--------------------12---------------5---------7---------9--------------------
 D-5---------7---------10---------12---------------5---------7---------7-77-7-77-7-77-77-7--
 A-3-33-3-33-5-55-5-55--8-88-8-88-10-1010-10-1010--3-33-3-33-5-55-5-55----------------------
 E------------------------------------------------------------------------------------------

   (6:00)"I know what I want...             play x3 (6:00 to 6:21)
 G-|-9----------10----------12---------------3-----5----|----|----
 D-|-7-77-7-77--10----------12---------------3-----5----|-X3-|----
 A-|-------------8-88-8-88--10-1010-10-1010--1-11--3-33-|----|----
 E-|----------------------------------------------------|----|----

 (6:21)Cont Chorus                       (6:27)                (6:30)
 G-9----------10----------12--------------10--------------------14-------------------------
 D-7-77-7-77--10----------12---------------8-88-8-88-8-88-88-8--12-1212-12-12121212121212--
 A-------------8-88-8-88--10-1010-10-1010--------------------------------------------------
 E-----------------------------------------------------------------------------------------

 (6:34)Outro               (6:35)                 (6:37)                 (6:40)
 G-----7--7---9---9---9--------7--7---9---9---9---------3--3---5---5---5---------------------
 D---7--7--7----7---7---7----7--7--7----7---7---7-----3--3--3----3---3-------5--5---5--5--5--
 A-5-----------------------5-----------------------1-----------------------5--5--5----5--5---
 E-----------------------------------------------------------------------3-------------------

 (6:42)                                                                (6:48)           (6:50)
 G-----7--7---9---9---9-------7--7---9---9---9-------3--3---5---5---5-----------------------------
 D---7--7--7----7---7-------7--7--7----7---7-------3--3--3----3---3--------5--5---5--------7-7-7--
 A-5----------------------5----------------------1-----------------------5--5--5----5-------------
 E---------------------------------------------------------------------3--------------3--5--------
  development and support by
dmitry ivanov