rock
 
|tablatures   |lyrics   |discussion forums   |more tabs @ XGuitar.com

Iron Maiden tabs

Infinite Dreams bass tab

Guilherme Braga (fester@cpovo.net)

Infinite Dreams
by IRON MAIDEN
BASS TAB

|-------9-----------5-----------7-----------5-------|
|---7-9---9-7---3-5---5-3---5-7---7-5---3-5---5-3-5-|
|-7-----------3-----------5-----------3-------------|
|---------------------------------------------------|
						 Play four times

|---------------5-----7-9-7------------------5-------7-----9-------------------5-
|-------------5-----7-------9\-------------5---5---7-----9-------------------5---
|---5-7-5-7-3-----5--------------5-7-5-7-3-------5-----7-----7-7---5-7-5-7-3-----
|-0----------------------------0---------------------------------0---------------
    Vocals enter

----7-9-7-----------------10-12----10-12----12-14----12-14-16-14-12\-|
--7-------9\-----------10-------10-------12-------12-----------------|
5--------------5-7-5-7-----------------------------------------------|
-------------0-------------------------------------------------------|
					                         Play six times

|-------9-------5--------7-------11-12-11-------|
|-----9-------5--------7---12-14----------14-12-|
|-7-7-----3-3-----5-55--------------------------|
|-----------------------------------------------|
 Play twice, then twice again in G instead of E. Repeat 2 times.

					                     --------------  ---
								  |1,3            |2,4
|---------9---------------5---------------7---------------7------------|
|---9-7-9---9-7-9---5-3-5---5-3-5---7-5-7---7-5-7---7-5-7---7-5-7--5~--|
|-7---------------3---------------5---------------5--------------------|
|----------------------------------------------------------------------|

|----------------------------------------------------------------------------------
|----------------------------------------------------------------------------------
|-7-777-77-3-333-33-5-555-55-0-5-5-5-5--5-5-5-5-7-777-77-3-333-33-5-5-5-5-5-5-5-5-5
|----------------------------------------------------------------------------------

-----------------------------------------------------------------------------------
-----------------------------------------------------------------------------------
-7-777-77-3-333-33-5-555-55-0-5-5-5-5--5-5-5-5-7-777-77-3-333-33-55555555555555555-
-----------------------------------------------------------------------------------

|---------------------------------------------------------------------------------|
|-----------------------------------4h5-4h5-4-------------------------------------|
|7-7-7-7-7-7-3-3-3-3-3-3-5-5-5-5-5-5---------5-7-7-7-7-7-7-3-3-3-3-3-3-5-5-0-0-5-5|
|---------------------------------------------------------------------------------|
												Play twice

|---------------------------------------------------------------------|
|-------------------------------------------------------9-9-9-9-10-12-|
|-10-10-10-10-10-10-10-10-10-10-10-10-10-10-10-10-10-10---------------|
|---------------------------------------------------------------------|
										Play twice

|---------------------------------------------------------------------|
|---------------------------------------------------------------------|
|-7-7-7-7-7-5-5-5-5-5-----------3-5-7-7-7-7-7-5-5-5-5-5-.-.-----.-.-.-|
|---------------------3-3-3-3-3-------------------------3-3-3-3-3-3-3-|
					                              Play twice

|---------------------------------------------------------------------|
|-------------------------------------------------------9-9-9-9-10-12-|
|-10-10-10-10-10-10-10-10-10-10-10-10-10-10-10-10-10-10---------------|
|---------------------------------------------------------------------|
										Play twice

|---------------------------------------|
|-3-3-3-3-3-----------------------------|
|-----------3-3-3-3-3-------------------|
|---------------------3-3-3-3-3-3-3-3-3-|
				 Play four times

|-------------------------------------------------------------|
|-2-222-222-2-2-2---------------------------------------------|
|-----------------3-333-333-3-3-3-5-555-555-5-5-5-2-222-3-333-|
|-------------------------------------------------------------|
								    Play twice

|---------------------------------------------------------------------------------
|---------------------------------------------------------------------------------
|-9-9-9-9-9-9-9-9-9-9-9-9-9-9-9-9-9-9-9-9-5-5-5-5-5-7-7-7-7-7-9-9-9-9-9-7-7-7-7-7-
|---------------------------------------------------------------------------------
  "Help me! help me to find my true self without seeing the future..."

---------------------------------------------------------------|
---------------------------------------------------------------|
9-9-9-9-9-9-9-9-9-9-9-9-9-9-9-9-9-9-9-9-5-5-5-5-5-7-7-7-7-7-9\-|
---------------------------------------------------------------|

|---------------------------------------------------------|
|---------------------------------------------------------|
|---------------------------------------------------------|
|-0-00-000-00-000-00-000-00-3-0-00-000-00-000-00-000-00-5-|
  Guitar solo Play twice, then twice again in F# insted of E

|-------------------------------------------------------------|
|-2-222-222-2-2-2---------------------------------------------|
|-----------------3-333-333-3-3-3-5-555-555-5-5-5-2-222-3-333-|
|-------------------------------------------------------------|

|---------------------------------------------------------------------|
|-2-222-222-2-2-2-----------------------------------------------------|
|-----------------3-333-333-3-3-3-5-555-555-5-5-5-2---2---3-2-3-5-3-5-|
|---------------------------------------------------2---2-------------|
								    
|-------9-------5--------7-------11-12-11-------|
|-----9-------5--------7---12-14----------14-12-|
|-7-7-----3-3-----5-55--------------------------|
|-----------------------------------------------|
    Play twice,then once again in G instead of E

|----------12-------8----------10-------14-15-14-------9-|
|-------12--------8---------10----15-17----------17-15-9-|
|-10-10-------6-6-----8-8-8----------------------------7-|
|--------------------------------------------------------|
				          Ritard
  development and support by
dmitry ivanov