rock
 
|tablatures   |lyrics   |discussion forums   |more tabs @ XGuitar.com

Iron Maiden tabs

Im A Mover guitar tab

I'M A MOVER



|--------------------|---------------------------------------------------------|
|--------------------|---------------------------------------------------------|
|--------------------|----5^5--------------------------------------------------|
|--------5-----------|----5^5--------------------------------------------------|
|----------3--3--5---|---------------------------------------------------------|
|--3--3-------------6|---------------------------------------------------------|

        D5   C5
|------------------------------------------------------------------------------|
|------------------------------------------------------------------------------|
|-------7----5-----------------------------------------------------------------|
|-------7----5-----------------------------------------------------------------|
|-------5----3-----------------------------------------------------------------|
|------------------------------------------------------------------------------|

CODA:
|------------------------------------------------------------------------------|
|----------------------------10------------------------------------------------|
|--10--10--9--7--9--7----------------------------------------------------------|
|----------------------8--7----------------------------------------------------|
|------------------------------------------------------------------------------|
|------------------------------------------------------------------------------|


|------------------------------------------------------------------------------|
|------------------------------------------------------------------------------|
|------------------------------------------------------------------------------|
|------------------------------------------------------------------------------|
|------------------------------------------------------------------------------|
|------------------------------------------------------------------------------|
  development and support by
dmitry ivanov