rock
 
|tablatures   |lyrics   |discussion forums   |more tabs @ XGuitar.com

Iron Maiden tabs

Hooks In You bass tab

\\        \\               _     __ \\
   |  | /\\    /\\   |\\  |    |\\  /\\    /| | | \\   |   |\\  |
   |  |/__\\  /  \\  | \\ |    | \\/ |   / | | |  \\  |__ | \\ |
   |  |  \\  /    \\ |  \\|    |    | \\/  | | |   \\ |   |  \\|
   |  |   \\ \\____/ |   |    |    | /\\__| | |___/ \\__ |   |
           \\           |    |                            |

                    SONG:   HOOKS IN YOU
              ALBUM:   NO PRAYER FOR THE DYING

INTRO
G|--r--|--r--|--r--|-----------------|
D|--e--|--e--|--e--|-------------7-6-|
A|--s--|--s--|--s--|-----5---5-7-----|
E|--t--|--t--|--t--|-5-7---7---------|

--r--|-----------------|--r--|-----------------|
--e--|-------------7-6-|--e--|-------------7-6-|
--s--|-----------------|--s--|-----5---5-7-----|
--t--|-----------------|--t--|-5-7---7---------|

VERSE
G|---------------------------------|---------------------------------|
D|-----------------------------7-6-|-----------------------------7-6-|
A|-7-7-7-7-7-7-7-7-7-7-7-7-7-7-----|-7-7-7-7-7-7-7-7-----5---5-7-----|
E|---------------------------------|-----------------5-7---7---------| x4

CHORUS
G|-----------------------------------------------------------------
D|-----------------------------------------------------------------
A|-2-2-2-2-2-2-2-2-2-2-2-2-2-2-2-2-0-0-0-0-0-0-0-0-0-0-0-0-0-0-0-0-
E|-----------------------------------------------------------------

-----------------------------------------------------------------
-----------------------------------------------------------------
-2-2-4-4-4-4-4-4-4-4-4-4-4-4-4-4-2-2-2-2-2-2-2-2-2-2-2-2-2-2-2-2-
-----------------------------------------------------------------

-----------------------------------------------------------------
-----------------------------------------------------------------
-0-0-0-0-0-0-0-0-0-0-0-0-0-0-0-0-2-2-4-4-4-4-4-4-4-4-4-4-4-4-4-4-
-----------------------------------------------------------------

------------------------------------------------------------------------
-----------------------------------------7-7-7-9-9--9-11-11-11-12-12-12-
-2-2-2-2-2-2-2-2-2-2-2-2-2-2-2-2-0-0-0-0--------------------------------
------------------------------------------------------------------------

--------------------------------9---9--|
-14-14-14--7-6---7-6---7-6----7---7----|
---------------7-----7-----7-----------|
---------------------------------------|

VERSE

CHORUS

BRIDGE
G|-9~----5~----------10~----9~---5~--------10~--------------------------
D|-9~----5~----7~----10~----9~---5~---7~---10~--------------------------
A|-7~----3~----7~-----8~----7~---3~---7~----8-8-8-8-8-8-8-8-8-8-8-8-8-8-
E|-------------5~---------------------5~--------------------------------

SOLO
G|---9-------------------------------5-----------------------------
D|-----------------------------------------------------------------
A|-7---7-7-7-7-7-7-7-7-7-7-7-7-7-7-3---3-3-3-3-3-3-3-3-3-3-3-3-3-3-
E|-----------------------------------------------------------------

-----------------------------------10-----10-----10-----10-----10-12-12-
---7--------------------------------------------------------------------
---------------------------------8----8-8----8-8----8-8----8-8----------
-5---5-5-5-5-5-5-5-5-5-5-5-5-5-5---------------------------------------- x2

---6-------------------------------------------------------------
-----------------------------------7-----------------------------
-4---4-4-4-4-4-4-4-4-4-4-4-4-4-4---------------------------------
---------------------------------5---5-5-5-5-5-5-5-5-5-5-5-5-5-5-

---11------------------------------------------------------------
-----------------------------------7-----------------------------
-9----9-9-9-9-9-9-9-9-9-9-9-9-9----------------------------------
---------------------------------5---5-5-5-5-5-5-5-5-5-5-5-5-5-5-

INTRO

VERSE

CHORUS

END
G|---------------------------------------------------------
D|---------------------------------------------------------
A|-7-7-7-7-7-7-7-7-7-7-7-7-7-7-3-3-3-3-3-3-3-3-3-3-3-3-3-3-
E|---------------------------------------------------------

-----------------------------------------------------------------------
-----------------------------------------------------------------------
12-12-12-12-12-12-12-12-12-12-12-12-128-8-8-8-8-8-8-8-8-8-8-8-8-8-8-8--
-----------------------------------------------------------------------

-----------------------------------------------------------------------
-----------------------------------------------------------------------
-7-7-7-9-9-9-11-11-11-12-12-14-14-16---3-3-3-5-5-5-7-7-7-8-8-10-10-12--
-----------------------------------------------------------------------

-----------------------------------------------------------------------
-----------------------------------------------------------------------
-0-0-0-2-2-2-4-4-4-5-5-7-7-9---8-8-8-10-10-10-12-12-12-13-13-15-15-17--
-----------------------------------------------------------------------

----------------------------------|
--7-6---7-6---7-6---7-6---7-6-7-.-|
------7-----7-----7-----7-------7-|
----------------------------------|

                              _        _
                /|/| | |\\| | /  |_| | /
    TABBED by  / | | | | | | \\_ | | | \\_  minichic@tagshop.it
  development and support by
dmitry ivanov