rock
 
|tablatures   |lyrics   |discussion forums   |more tabs @ XGuitar.com

Iron Maiden tabs

Ghost Of The Navigator bass tab

Standard tuning

G||-------------------------|-------------------------|-------------------------
D||-------------------------|-------------------------|-------------------------
A||--5----------------------|--3----------------------|--5----------------------
E||-------------------------|-------------------------|-------------------------




G||-------------------------|-------------------------|-------------------------
D||-------------------------|-------------------------|-------------------------
A||--3----------------------|--1----------------------|--1-------------------3--
E||-------------------------|-------------------------|-------------------------




G||-------------------------|-------------------------|-------------------------
D||-------------------------|-------------------------|-------5--3-----2--------
A||--5----------------------|--3----------------------|--4/5--------------5--3--
E||-------------------------|-------------------------|-------------------------




G||-------------------------|-------------------------|-------------------------
D||-------5--3-----2--------|-------5--3-----2--------|-------2--3-----5--3--2--
A||--0/1--------------5--3--|--2/3--------------5--3--|--4/5--------------------
E||-------------------------|-------------------------|-------------------------




G||-------------------------|-------------------------|-------------------------
D||-------5--3-----2--------|-------5--3-----2--------|-------5--3-----2--------
A||--4/5--------------5--3--|--0/1--------------5--3--|--2/3--------------5--3--
E||-------------------------|-------------------------|-------------------------




G||-------------------------|-------------------------|
D||-------2--3-----5--3--2--|-------------------------|
A||--4/5--------------------|-------------------------|
E||-------------------------|-------------------------|



G||--7----------------------|-------------------------|-------------------------
D||--7----------------------|-----0--0-0-0-0-0-0-0-0--|-----0--0-0-0-0-0-0-0-0--
A||--5--5--5-5-5-5-5-5-5-5--|-------------------------|-------------------------
E||-------------------------|--1----------------------|--3----------------------


G||-------------------------|
D||------------------------*|
A||--3------5------3--3----*|
E||-------------------------|



G||--7----------------------|-------------------------|-------------------------
D||--7----------------------|-----0--0-0-0-0-0-0-0-0--|-----0--0-0-0-0-0-0-0-0--
A||--5--5--5-5-5-5-5-5-5-5--|-------------------------|-------------------------
E||-------------------------|--1----------------------|--3----------------------



G||-------------------------|
D||------------------------*|
A||--3------5------3--3----*|
E||-------------------------|



G||--2----------------------|--5----------------------|--4----------------------
D||--2----------------------|--5----------------------|--4----------------------
A||--0--------0--0----0--0--|--3--------3--3----3--3--|--2--------2--2----2--2--
E||-------------------------|-------------------------|-------------------------




G||--7---------5-------4----|
D||--7---------5-------4---*|
A||--5---------3-------2---*|
E||-------------------------|



G||--9----------12----------|--5----------6--------6--|--9----------12----------
D||--9----------12----------|--5----------6--------6--|--9----------12----------
A||--7-------7--10--10--10--|--3-------3--4--------4--|--7-------7--10--10--10--
E||-------------------------|-------------------------|-------------------------




G||--5-------5--2-----4-----|
D||--5-------5--2-----4----*|
A||--3-------3--0-----2----*|
E||-------------------------|



G||--7----------------------|--5----------------------|--7----------------------
D||--7----------------------|--5----------------------|--7----------------------
A||--5-5-5-5----5-5-5----5--|--3-3-3-3----3-3-3----3--|--5-5-5-5----5-5-5----5--
E||-------------------------|-------------------------|-------------------------



G||--5----------------------|--3----------------------|--3----------------------
D||--5----------------------|--3----------------------|--3----------------------
A||--3-3-3-3----3-3-3----3--|--1-1-1-1----1-1-1----1--|--1-1-1-1----1-1-1----1/3
E||-------------------------|-------------------------|-------------------------


G||--7----------------------|--5----------------------|
D||--7----------------------|--5---------------------*|
A||--5-5-5-5----5-5-5----5--|--3-3-3-3----3-3-3----3-*|
E||-------------------------|-------------------------|

play 4x
G||--7----------------------|-------------------------|-------------------------
D||--7----------------------|-----0--0-0-0-0-0-0-0-0--|-----0--0-0-0-0-0-0-0-0--
A||--5--5--5-5-5-5-5-5-5-5--|-------------------------|-------------------------
E||-------------------------|--1----------------------|--3----------------------


G||-------------------------|
D||------------------------*|
A||--3------5------3--3----*|
E||-------------------------|




G||-------------------------|-------------------------|----------------------9--
D||-------------------------|-------------------------|----------------------9--
A||--7-------------------7--|--7-------------------7--|--7-------------------7--
E||--0----0--0-----0-0-0-0--|--0----0--0-----0-0-0-0--|--0----0--0-----0-0-0----

                         2x |
G||--5---------7------------|--7-------------------7--|--7-------------------7--
D||--5---------7-----------*|--7-------------------7--|--7-------------------7--
A||--3---------5-----------*|--5----5--5-----5-5-5-5--|--5----5--5-----5-5-5-5--
E||-------------------------|-------------------------|-------------------------

                                                   2x |
G||--7-------------------7--|--3---------5------------|--11------------------11-
D||--7-------------------7--|--3---------5-----------*|--11------------------11-
A||--5----5--5-----5-5-5-5--|--1---------3-----------*|--9----9--9-----9-9-9-9--
E||-------------------------|-------------------------|-------------------------

                                                                            2x |
G||--11------------------11-|--11------------------11-|--7---------9------------
D||--11------------------11-|--11------------------11-|--7---------9-----------*
A||--9----9--9-----9-9-9-9--|--9----9--9-----9-9-9-9--|--5---------7-----------*
E||-------------------------|-------------------------|-------------------------


G||-------------------------|-------------------------|----------------------9--
D||-------------------------|-------------------------|----------------------9--
A||--7-------------------7--|--7-------------------7--|--7-------------------7--
E||--0----0--0-----0-0-0-0--|--0----0--0-----0-0-0-0--|--0----0--0-----0-0-0----



                         2x |
G||--5---------7------------|
D||--5---------7-----------*|
A||--3---------5-----------*|
E||-------------------------|



G||--9----------12----------|--5----------6--------6--|--9----------12----------
D||--9----------12----------|--5----------6--------6--|--9----------12----------
A||--7-------7--10--10--10--|--3-------3--4--------4--|--7-------7--10--10--10--
E||-------------------------|-------------------------|-------------------------



G||--5-------5--2-----4-----|
D||--5-------5--2-----4----*|
A||--3-------3--0-----2----*|
E||-------------------------|



G||--7----------------------|--5----------------------|--7----------------------
D||--7----------------------|--5----------------------|--7----------------------
A||--5-5-5-5----5-5-5----5--|--3-3-3-3----3-3-3----3--|--5-5-5-5----5-5-5----5--
E||-------------------------|-------------------------|-------------------------



G||--5----------------------|--3----------------------|--3----------------------
D||--5----------------------|--3----------------------|--3----------------------
A||--3-3-3-3----3-3-3----3--|--1-1-1-1----1-1-1----1--|--1-1-1-1----1-1-1----1/3
E||-------------------------|-------------------------|-------------------------


G||--7----------------------|--5----------------------|
D||--7----------------------|--5---------------------*|
A||--5-5-5-5----5-5-5----5--|--3-3-3-3----3-3-3----3-*|
E||-------------------------|-------------------------|



G||--7----14----12----10----|--9----10-----7----------|
D||--7----14----12----10----|--9----10-----7----------|
A||--5----12----10----8-----|--7----8------5----------|
E||-------------------------|-------------------------|
  development and support by
dmitry ivanov