rock
 
|tablatures   |lyrics   |discussion forums   |more tabs @ XGuitar.com

Iron Maiden tabs

Gates Of Tomorrow guitar tab

this is finaly on here but it is not all of it sorry but most
Gates of Tomorrow

standard tuning
(E A D G B e)

Intro
|---------------------------------------------------------|
|--9-7-7-9-7-7-10-7-7-9-7-7-10-7-9-7-7\\\\\\-----------------|
|--7-7-7-7-7-7-7--7-7-7-7-7-7--7-7-7-7\\\\\\-----------------|
|---------------------------------------------------------|
|---------------------------------------------------------|
|---------------------------------------------------------|

|---------------------------------------------------------|
|--5-5-5-7-5-5-8-5-5-7-5-5-8-5-7-///----------------------|
|--5-5-5-5-5-5-5-5-5-5-5-5-7-5-5-///----------------------|
|---------------------------------------------------------|
|---------------------------------------------------------|
|---------------------------------------------------------|

|---------------------------------------------------------|
|--9-7-7-9-7-7-10-7-7-9-7-7-10-7-9-7-7\\\\\\-----------------|
|--7-7-7-7-7-7-7--7-7-7-7-7-7--7-7-7-7\\\\\\-----------------|
|---------------------------------------------------------|
|---------------------------------------------------------|
|---------------------------------------------------------|

|---------------------------------------------------------|
|--5-5-5-7-5-5-8-5-5-7-5-5-8-5-7-///----------------------|
|--5-5-5-5-5-5-5-5-5-5-5-5-7-5-5-///----------------------|
|---------------------------------------------------------|
|---------------------------------------------------------|
|---------------------------------------------------------|

|---------------------------------------------------------|
|--9-7-7-9-7-7-10-7-7-9-7-7-10-7-9-7-7\\\\\\-----------------|
|--7-7-7-7-7-7-7--7-7-7-7-7-7--7-7-7-7\\\\\\-----------------|
|---------------------------------------------------------|
|---------------------------------------------------------|
|---------------------------------------------------------|

|---------------------------------------------------------|
|--5-5-5-7-5-5-8-5-5-7-5-5-8-5-7-\\\\\\----------------------|
|--5-5-5-5-5-5-5-5-5-5-5-5-7-5-5-\\\\\\----------------------|
|---------------------------------------------------------|
|---------------------------------------------------------|
|---------------------------------------------------------|

|---------------------------------------------------------|
|--3-3-3-5-3-3-6-3-3-5-3-3-6-3-5-///----------------------|
|--3-3-3-3-3-3-3-3-3-3-3-3-3-3-3-///----------------------|
|---------------------------------------------------------|
|---------------------------------------------------------|
|---------------------------------------------------------|

|---------------------------------------------------------|
|--5-5-5-7-5-5-8-5-5-7-5-5-8-5-7-\\\\\\----------------------|
|--5-5-5-5-5-5-5-5-5-5-5-5-7-5-5-\\\\\\----------------------|
|---------------------------------------------------------|
|---------------------------------------------------------|
|---------------------------------------------------------|

|---------------------------------------------------------|
|--3-3-3-5-3-3-6-3-3-5-3-3-6-3-5-///----------------------|
|--3-3-3-3-3-3-3-3-3-3-3-3-3-3-3-///----------------------|
|---------------------------------------------------------|
|---------------------------------------------------------|
|---------------------------------------------------------|

|---------------------------------------------------------|
|--5-5-5-7-5-5-8-5-5-7-5-5-8-5-7-\\\\\\----------------------|
|--5-5-5-5-5-5-5-5-5-5-5-5-7-5-5-\\\\\\----------------------|
|---------------------------------------------------------|
|---------------------------------------------------------|
|---------------------------------------------------------|

|---------------------------------------------------------|
|--9-7-7-9-7-7-10-7-7-9-7-7-10-7-9-7-7\\\\\\-----------------|
|--7-7-7-7-7-7-7--7-7-7-7-7-7--7-7-7-7\\\\\\-----------------|
|---------------------------------------------------------|
|---------------------------------------------------------|
|---------------------------------------------------------|

|---------------------------------------------------------|
|--5-5-5-7-5-5-8-5-5-7-5-5-8-5-7-\\\\\\----------------------|
|--5-5-5-5-5-5-5-5-5-5-5-5-7-5-5-\\\\\\----------------------|
|---------------------------------------------------------|
|---------------------------------------------------------|
|---------------------------------------------------------|

|---------------------------------------------------------|
|--9-7-7-9-7-7-10-7-7-9-7-7-10-7-9-7-7\\\\\\-----------------|
|--7-7-7-7-7-7-7--7-7-7-7-7-7--7-7-7-7\\\\\\-----------------|
|---------------------------------------------------------|
|---------------------------------------------------------|
|---------------------------------------------------------|

|---------------------------------------------------------|
|--5-5-5-7-5-5-8-5-5-7-5-5-8-5-7-\\\\\\----------------------|
|--5-5-5-5-5-5-5-5-5-5-5-5-7-5-5-\\\\\\----------------------|
|---------------------------------------------------------|
|---------------------------------------------------------|
|---------------------------------------------------------|

|---------------------------------------------------------|
|--3-3-3-5-3-3-6-3-3-5-3-3-6-3-5-///----------------------|
|--3-3-3-3-3-3-3-3-3-3-3-3-3-3-3-///----------------------|
|---------------------------------------------------------|
|---------------------------------------------------------|
|---------------------------------------------------------|

|---------------------------------------------------------|
|--5-5-5-7-5-5-8-5-5-7-5-5-8-5-7-\\\\\\----------------------|
|--5-5-5-5-5-5-5-5-5-5-5-5-7-5-5-\\\\\\----------------------|
|---------------------------------------------------------|
|---------------------------------------------------------|
|---------------------------------------------------------|

|---------------------------------------------------------|
|--3-3-3-5-3-3-6-3-3-5-3-3-6-3-5-///----------------------|
|--3-3-3-3-3-3-3-3-3-3-3-3-3-3-3-///----------------------|
|---------------------------------------------------------|
|---------------------------------------------------------|
|---------------------------------------------------------|

|---------------------------------------------------------|
|--5-5-5-7-5-5-8-5-5-7-5-5-8-5-7-\\\\\\----------------------|
|--5-5-5-5-5-5-5-5-5-5-5-5-7-5-5-\\\\\\----------------------|
|---------------------------------------------------------|
|---------------------------------------------------------|
|---------------------------------------------------------|

|---------------------------------------------------------|
|--9-7-7-9-7-7-10-7-7-9-7-7-10-7-9-7-7\\\\\\-----------------|
|--7-7-7-7-7-7-7--7-7-7-7-7-7--7-7-7-7\\\\\\-----------------|
|---------------------------------------------------------|
|---------------------------------------------------------|
|---------------------------------------------------------|

continue till melody

Melody
|----5--7--8--10--8--7--5--7--8--10---------(x2)----------|
|---------------------------------------------------------|
|---------------------------------------------------------|
|---------------------------------------------------------|
|---------------------------------------------------------|
|---------------------------------------------------------|

|---------------------------------------------------------|
|---7--9--10--12--10--9--7--9--10--12---------------------|
|---------------------------------------------------------|
|---------------------------------------------------------|
|---------------------------------------------------------|
|---------------------------------------------------------|

|---------------------------------------------------------|
|-------7--9--10-9--7-----7--9--10--9--7------------------|
|---9------------------9----------------------------------|
|---------------------------------------------------------|
|---------------------------------------------------------|
|---------------------------------------------------------|

and so on and so fourth
That is it so far
  development and support by
dmitry ivanov