rock
 
|tablatures   |lyrics   |discussion forums   |more tabs @ XGuitar.com

Iron Maiden tabs

Futureal bass tab


Song:Futureal
Band:Iron Maiden
Transcribed by:André Baida from BRAZIL!                                     


Intro 
                                                                          
G----------------9--|----------------------5--|----------------------7--|
D----------------9--|----------------------5--|----------------------7--|
A----------------7--|----7--7--7--7--7--7--3--|----3--3--3--3--3--3--5--|
E-------------------|-------------------------|-------------------------|
                                                                               
----------------------|-----------------------9--|----------------------5--|
----------------------|-----------------------9--|----------------------5--|
-5--5--5--5--5--5--5--|--5--5--5--5--5--5--5--7--|----7--7--7--7--7--7--3--|
----------------------|--------------------------|-------------------------|
                                                                               
-------------------2--|-------------------------|-----------------------9--|
-------------------2--|-------------------------|-----------------------9--|
-3--3--3--3--3--3--0--|----0--0--0--0--0--0--0--|--0--0--0--0--0--0--0--7--|
----------------------|-------------------------|--------------------------|
                                                                              
-------------------5--|----------------------7--|-------------------------|
-------------------5--|----------------------7--|-------------------------|
-7--7--7--7--7--7--3--|----3--3--3--3--3--3--5--|----5--5--5--5--5--5--5--|
----------------------|-------------------------|-------------------------|
                                                                               
-------------------9--|----------------------5--|----------------------2--|
-------------------9--|----------------------5--|----------------------2--|
-5--5--5--5--5--5--7--|----7--7--7--7--7--7--3--|----3--3--3--3--3--3--0--|
----------------------|-------------------------|-------------------------|

 								=> Vocals                                                                              
----------------------|-----------------------9--|----------------------9--|
----------------------|-----------------------9--|----------------------9--|
-0--0--0--0--0--0--0--|--0--0--0--0--0--0--0--7--|----7--7--7--7--7--7--7--|
----------------------|--------------------------|-------------------------|
                                                                           
----------------------9--|-------------------------|-------------------5--|
----------------------9--|-------------------------|-------------------5--|
----7--7--7--7--7--7--7--|----7--7--7--7--7--7--7--|----7----7----7----3--|
-------------------------|-------------------------|----------------------|
                                                                             
-------------------7--|----------------------9--|----------------------9--|
-------------------7--|----------------------9--|----------------------9--|
-3--3--3--3--3--3--5--|----5--5--5--5--5--5--7--|----7--7--7--7--7--7--7--|
----------------------|-------------------------|-------------------------|
                                                                              
-------------------9--|----------------------9--|----------------------9--|
-------------------9--|----------------------9--|----------------------9--|
-7--7--7--7--7--7--7--|----7--7--7--7--7--7--7--|----7--7--7--7--7--7--7--|
----------------------|-------------------------|-------------------------|
						                                                                           
----------------------|-------------------5--|----------------------7--|
----------------------|-------------------5--|----------------------7--|
-7--7--7--7--7--7--7--|----7----7----7----3--|----3--3--3--3--3--3--5--|
----------------------|----------------------|-------------------------|
                                                                              
-------------------9--|----------------------9--|----------------------5--|
-------------------9--|----------------------9--|----------------------5--|
-5--5--5--5--5--5--7--|----7--7--7--7--7--7--7--|----7--7--7--7--7--7--3--|
----------------------|-------------------------|-------------------------|


=> Bridge.                                                                              
----------------------7--|----------------------5--|----------------------7--|
----------------------7--|----------------------5--|----------------------7--|
----3--3--3--3--3--3--5--|----5--5--5--5--5--5--3--|----3--3--3--3--3--3--5--|
-------------------------|-------------------------|-------------------------|
                                                                              
-------------------------|
----------------------2--|
----5--5--5--5--5--5-----|
-------------------------|

Chorus.
                                                                              
--------0--------------|-------------------------|----------0--------------|
--22-4--------0--2--0--|-------0-----0--2--4--2--|----2--4--------0--2--0--|
-----------3-----------|----2-----2--------------|-------------3-----------|
-----------------------|-------------------------|-------------------------|
                                                                              
----------0-----------|----------0--------------|-------------------------|
----0--------4--2--2--|----2--4--------0--2--0--|-------0-----0--2--4--2--|
-2-----2--------------|-------------3-----------|----2-----2--------------|
----------------------|-------------------------|-------------------------|
                                                     
----------0--------------|-------------0------------|
----2--4--------0--2--0--|-------0--------4--2------|
-------------3-----------|----2-----2---------------|
-------------------------|--------------------------|

Repeat Vocals, Bridge and Chorus.
 
Solo.

                                                                              
|----------------------9--|----------------------5--|
|----------------------9--|----------------------5--|
|----7--7--7--7--7--7--7--|----7--7--7--7--7--7--3--|
|-------------------------|-------------------------|
                                                                             
|------------------9--|----------------------9--|----------------------9--|
|------------------9--|----------------------9--|----------------------9--|
|-3--3-------------7--|----7--7--7--7--7--7--7--|----7--7--7--7--7--7--7--|
|-------3----3--3-----|-------------------------|-------------------------|
                                                                            
|---------------------5--|---------------------7--|----------2----------7--|
|---------------------5--|---------------------7--|----------2----------7--|
|---7--7--7--7--7--7--3--|----3--3-------------5--|----5--5--0----0--0--5--|
|------------------------|----------3----3--3-----|------------------------|
                                                                             
|-------------------7--|----------------------5--|---------------------9--|
|-0-----0--0--0--0--7--|----0-----0--0--0--0--5--|---------------------9--|
|----5--------------5--|-------5--------------3--|----3--3-------------7--|
|----------------------|-------------------------|----------3----3--3-----|
                                                                              
|-------------------9--|----------------------9--|----------------------5--|
|-------------------9--|----------------------9--|----------------------5--|
|-7--7--7--7--7--7--7--|----7--7--7--7--7--7--7--|----7--7--7--7--7--7--3--|
|----------------------|-------------------------|-------------------------|
                                                                            
|------------------9--|----------------------9--|----------------------9--|
|------------------9--|----------------------9--|----------------------9--|
|-3--3-------------7--|----7--7--7--7--7--7--7--|----7--7--7--7--7--7--7--|
|-------3----3--3-----|-------------------------|-------------------------|
                                                                           
|-------------------5--|---------------------7--|----------2----------7--|
|-------------------5--|---------------------7--|----------2----------7--|
|-7--7--7--7--7--7--3--|----3--3-------------5--|----5--5--0----0--0--5--|
|----------------------|----------3----3--3-----|------------------------|
                                                                            
|-------------------7--|----------------------5--|---------------------9--|
|-0-----0--0--0--0--7--|----0-----0--0--0--0--5--|---------------------9--|
|----5--------------5--|-------5--------------3--|----3--3-------------7--|
|----------------------|-------------------------|----------3----3--3-----|
	                                                                             
|-------------------9--|----------------------9--|
|-------------------9--|----------------------9--|
|-7--7--7--7--7--7--7--|----7--7--7--7--7--7--7--|
|----------------------|-------------------------|

Guitar Duet.
                                                                              
|----------------------|--12------9----11--------|-------------------------|
|----------------------|--10------7----9-----10--|-------------------------|
|-7--7--7--7--7--7--7--|---------------------10--|-------------------------|
|----------------------|---------------------8---|----8--8--8--8--8--8--8--|
                                                                             
|--12------9----11--||
|--10------7----9---||
|-------------------||
|-------------------||


Repeat Intro, Bridge and Chorus.

End.
  development and support by
dmitry ivanov