rock
 
|tablatures   |lyrics   |discussion forums   |more tabs @ XGuitar.com

Iron Maiden tabs

From Here To Eternity bass tab

I made this tab as best as i could.  
If you do see a mistake or have any questions or there are any other 
Iron Maiden songs you want me to tab for you please e-mail me at brucklepea@hotmail.com.
Thanks.

Band-   Iron Maiden
Album-  Fear of the Dark
Song-   From here to eternity


~ = let ring
| = pause

Intro
G|-7-7-7-7-7-7-7-7-5-5-5-5-5-5-5-5-4-4-4-4-5-4-5-7-7-7-7-7-7-5-5---
D|-----------------------------------------------------------------
A|----------------------------------------------------------------- x3
E|-----------------------------------------------------------------

G|-7-7-7-7-7-7-7-7-5-5-5-5-5-5-5-5-3-3-3-3-5-5-5-7-7-7-7-7-7-7-7-
D|---------------------------------------------------------------
A|---------------------------------------------------------------
E|---------------------------------------------------------------

Verse
G|----------------------------------------------------
D|----------------------------------------------------
A|-7-7-7-7-7-7-5-5-5-5-5-5-3-3-3-3-3-3-5-5-5-5-5-5----
E|----------------------------------------------------

Verse (continued)
G|----------------------------------------------------
D|----------------------------------------------------
A|-7-7-7-7-7-7-5-5-5-5-5-5-3-3-3-3-3-3-5-5-5-5-------- x2
E|---------------------------------------------5-4-0--

Chorus
G|----------------------------------------------------
D|-----------------------7-6---7-6---7-6--------------
A|---------------------------7-----7-----7-5---------- x2
E|-0-0-0-0-5-4-0-0-0-0-0---------------------7-5-4----
            |
Do this when he sings "bad place"

Verse x2

Chorus x4

Bridge (before solo)
G|-9-9-9-9-9-9-9-9-7-7-7-7-7-7-7-7-6-6-6-6-7-6-7-9-9-9-9-9-9-7-7---
D|-----------------------------------------------------------------
A|-----------------------------------------------------------------
E|-----------------------------------------------------------------

Bridge continued
G|-9-9-9-9-9-9-9-9-7-7-7-7-7-7-7-7-5-5-5-5-7-5-7-9-9-9-9-9-9-7-7---
D|-----------------------------------------------------------------
A|----------------------------------------------------------------- x2
E|-----------------------------------------------------------------

Solo
G|------------------------------------------------------------------
D|------------------------------------------------------------------
A|-7-7-7-7-7-7-7-7-5-5-5-5-5-5-5-5-3-3-3-3-5-5-5-5-7-7-7-7-7-7-7-7-- x2
E|------------------------------------------------------------------

G|------------------------------------------------------------------
D|------------------------------------------------------------------
A|-5-5-5-5-5-5-5-5-3-3-3-3-3-3-3-3-1-1-1-1-3-3-3-3-5-5-5-5-5-5-5-5-- x2
E|------------------------------------------------------------------

Chorus x4

Outro
G|---------------------------------------------
D|--------------7-6---7-6---7~-6~--------------
A|------------------7-----7-------7-7-7-7-7-7-- x2
E|-0-0-0-0-5-4~--------------------------------
  development and support by
dmitry ivanov