rock
 
|tablatures   |lyrics   |discussion forums   |more tabs @ XGuitar.com

Iron Maiden tabs

Flash Of The Blade bass tab

                  Flash of the Blade (Dickinson)
                  From the album "Powerslave"
                  Transcribed by Vinicius Neves (eneves@sti.com.br)
           ONLY BASS TABS (www.winbr.com/basstabs/index.html)

 Intro
 |----------|--------|--------|--------|--------|--------|--------|
 |----------|--------|--------|--------|--------|--------|--------|
 |----------|-----5--|--6--3--|-----5--|--1--3--|-----5--|--6--3--|
 |----------|--------|--------|--------|--------|--------|--------|

 |--------|--------|
 |--------|--------|
 |-----5--|--1--3--|
 |--------|--------|

 Verse
 |-------------------|-------------------|-------------------|
 |-------------------|-------------------|-------------------|
 |--0-0-0-0-0-0-0-0--|--0-0-0-0-0-0-0-0--|--3-3-3-3-3-3-3-3--|
 |-------------------|-------------------|-------------------|

 |-------------------|-------------------|-------------------|
 |-------------------|-------------------|-------------------|
 |--2-2-2-2-2-2-2-2--|--1-1-1-1-1-1-1-1--|--1-1-1-1-1-1-1-1--|
 |-------------------|-------------------|-------------------|

 |--------------------|-------------------|-------------------|
 |--------------------|-------------------|-------------------|
 |-----------3-0---0--|--0-0-0-0-0-0-0-0--|--0-0-0-0-0-0-0-0--|
 |--1-0--3-0-----3----|-------------------|-------------------|

 |-------------------|-------------------|-------------------|
 |-------------------|-------------------|-------------------|
 |--0-0-0-0-0-0-0-0--|--3-3-3-3-3-3-3-3--|--2-2-2-2-2-2-2-2--|
 |-------------------|-------------------|-------------------|

 |-------------------|-------------------|--------------------|
 |-------------------|-------------------|--------------------|
 |--1-1-1-1-1-1-1-1--|--1-1-1-1-1-1-1-1--|-----------3-0---0--|
 |-------------------|-------------------|--1-0--3-0-----3----|

 Chorus
 |-------------|-------------|-------------|-------------|
 |-------------|-------------|-------------|-------------|
 |--5-5-5-5-5--|--5-5-4-4-5--|--7-7-7-7-7--|--7-7-6-6-7--|
 |-------------|-------------|-------------|-------------|

 |-------------|-------------|---------------|-------------|
 |-------------|-------------|---------------|-------------|
 |--3-3-3-3-3--|--3-3-2-2-3--|---------------|-------------|
 |-------------|-------------|--3-3-3-2-2-2--|--0-0-0-0-0--|

 |-------------|-------------|-------------|-------------|
 |-------------|-------------|-------------|-------------|
 |--5-5-5-5-5--|--5-5-4-4-5--|--7-7-7-7-7--|--7-7-6-6-7--|
 |-------------|-------------|-------------|-------------|

 |-------------|-------------|---------------|-------------|
 |-------------|-------------|---------------|-------------|
 |--3-3-3-3-3--|--3-3-2-2-3--|---------------|-------------|
 |-------------|-------------|--3-3-3-2-2-2--|--0-0-0-0-0--|

 Outro
 |-------------|-------------|-----------|-----------|-------------|
 |-------------|-------------|-----------|-----------|-------------|
 |--5-5-5-5-5--|--5-5-5-5-5--|--6-6-6-6--|--3-3-3-3--|--5-5-5-5-5--|
 |-------------|-------------|-----------|-----------|-------------|

 |-------------|-------------|-------------|-------------|-------------|
 |-------------|-------------|-------------|-------------|-------------|
 |--5-5-5-5-5--|--1-1-1-1-1--|--3-3-3-3-3--|--5-5-5-5-5--|--5-5-5-5-5--|
 |-------------|-------------|-------------|-------------|-------------|

 |-------------|-------------|-------------|-------------|-------------|
 |-------------|-------------|-------------|-------------|-------------|
 |--6-6-6-6-6--|--3-3-3-3-3--|--5-5-5-5-5--|--5-5-5-5-5--|--1-1-1-1-1--|
 |-------------|-------------|-------------|-------------|-------------|

 |-------------|
 |-------------|
 |--3-3-3-3-3--|
 |-------------|

 Verse
 |-------------------|-------------------|-------------------|
 |-------------------|-------------------|-------------------|
 |--0-0-0-0-0-0-0-0--|--0-0-0-0-0-0-0-0--|--3-3-3-3-3-3-3-3--|
 |-------------------|-------------------|-------------------|

 |-------------------|-------------------|-------------------|
 |-------------------|-------------------|-------------------|
 |--2-2-2-2-2-2-2-2--|--1-1-1-1-1-1-1-1--|--1-1-1-1-1-1-1-1--|
 |-------------------|-------------------|-------------------|

 |--------------------|-------------------|-------------------|
 |--------------------|-------------------|-------------------|
 |-----------3-0---0--|--0-0-0-0-0-0-0-0--|--0-0-0-0-0-0-0-0--|
 |--1-0--3-0-----3----|-------------------|-------------------|

 |-------------------|-------------------|-------------------|
 |-------------------|-------------------|-------------------|
 |--0-0-0-0-0-0-0-0--|--3-3-3-3-3-3-3-3--|--2-2-2-2-2-2-2-2--|
 |-------------------|-------------------|-------------------|

 |-------------------|-------------------|--------------------|
 |-------------------|-------------------|--------------------|
 |--1-1-1-1-1-1-1-1--|--1-1-1-1-1-1-1-1--|-----------3-0---0--|
 |-------------------|-------------------|--1-0--3-0-----3----|

 Chorus
 |-------------|-------------|-------------|-------------|
 |-------------|-------------|-------------|-------------|
 |--5-5-5-5-5--|--5-5-4-4-5--|--7-7-7-7-7--|--7-7-6-6-7--|
 |-------------|-------------|-------------|-------------|

 |-------------|-------------|---------------|-------------|
 |-------------|-------------|---------------|-------------|
 |--3-3-3-3-3--|--3-3-2-2-3--|---------------|-------------|
 |-------------|-------------|--3-3-3-2-2-2--|--0-0-0-0-0--|

 |-------------|-------------|-------------|-------------|
 |-------------|-------------|-------------|-------------|
 |--5-5-5-5-5--|--5-5-4-4-5--|--7-7-7-7-7--|--7-7-6-6-7--|
 |-------------|-------------|-------------|-------------|

 |-------------|-------------|---------------|-------------|
 |-------------|-------------|---------------|-------------|
 |--3-3-3-3-3--|--3-3-2-2-3--|---------------|-------------|
 |-------------|-------------|--3-3-3-2-2-2--|--0-0-0-0-0--|

 Solo
 |---------------|---------------|---------------|---------------|
 |--7-----7------|--7-----7------|--6-----6------|--6-----6------|
 |----7-7---7-7--|----7-7---7-7--|----7-7---7-7--|----7-7---7-7--|
 |---------------|---------------|---------------|---------------|
 
 |---------------|---------------|---------------|---------------|
 |--7-----7------|--7-----7------|--6-----6------|--6-----6------|
 |----7-7---7-7--|----7-7---7-7--|----7-7---7-7--|----7-7---7-7--|
 |---------------|---------------|---------------|---------------|
 
 |---------------|---------------|---------------|---------------|
 |--7-----7------|--7-----7------|--6-----6------|--6-----6------|
 |----7-7---7-7--|----7-7---7-7--|----7-7---7-7--|----7-7---7-7--|
 |---------------|---------------|---------------|---------------|

 |---------------|---------------|---------------|---------------|
 |--7-----7------|--7-----7------|--6-----6------|--6-----6------|
 |----7-7---7-7--|----7-7---7-7--|----7-7---7-7--|----7-7---7-7--|
 |---------------|---------------|---------------|---------------|

 |---------------|---------------|---------------|---------------|
 |------7-7-7----|------7-7-7----|------7-7-7----|------7-7-7----|
 |--5-5-------5--|--5-5-------5--|--5-5-------5--|--5-5-------5--|
 |---------------|---------------|---------------|---------------|

 |---------------|---------------|---------------|---------------|
 |------9-9-9----|------9-9-9----|------9-9-9----|------9-9-9----|
 |--7-7-------7--|--7-7-------7--|--7-7-------7--|--7-7-------7--|
 |---------------|---------------|---------------|---------------|

 |---------------|---------------|---------------|---------------|
 |------5-5-5----|------5-5-5----|------5-5-5----|------5-5-5----|
 |--3-3-------3--|--3-3-------3--|--3-3-------3--|--3-3-------3--|
 |---------------|---------------|---------------|---------------|

 |---------------|---------------|---------------|---------------|
 |------7-7-7----|------7-7-7----|------7-7-7----|------7-7-7----|
 |--5-5-------5--|--5-5-------5--|--5-5-------5--|--5-5-------5--|
 |---------------|---------------|---------------|---------------|
 
 |---------------|---------------|---------------|---------------|
 |------7-7-7----|------7-7-7----|------7-7-7----|------7-7-7----|
 |--5-5-------5--|--5-5-------5--|--5-5-------5--|--5-5-------5--|
 |---------------|---------------|---------------|---------------|

 |---------------|---------------|---------------|---------------|
 |------9-9-9----|------9-9-9----|------9-9-9----|------9-9-9----|
 |--7-7-------7--|--7-7-------7--|--7-7-------7--|--7-7-------7--|
 |---------------|---------------|---------------|---------------|

 |---------------|---------------|---------------|---------------|
 |------5-5-5----|------5-5-5----|------5-5-5----|------5-5-5----|
 |--3-3-------3--|--3-3-------3--|--3-3-------3--|--3-3-------3--|
 |---------------|---------------|---------------|---------------|

 |---------------|---------------|---------------|---------------|
 |------7-7-7----|------7-7-7----|------7-7-7----|------7-7-7----|
 |--5-5-------5--|--5-5-------5--|--5-5-------5--|--5-5-------5--|
 |---------------|---------------|---------------|---------------|

 |---------|---------|---------|--------|---------|---------|--------|
 |---------|---------|---------|--------|---------|---------|--------|
 |------0--|---------|---------|-----0--|---------|---------|-----0--|
 |---------|------0--|------0--|--------|------0--|------0--|--------|

 |---------|---------|---------|--------|----------------------------|
 |---------|---------|---------|--------|----------------------------|
 |---------|---------|------0--|--------|----------------------------|
 |------0--|------0--|---------|--0--0--|--0-0-0-0-0-0--0-0-0-0-0-0--|



 Chorus
 |-------------|-------------|-------------|-------------|
 |-------------|-------------|-------------|-------------|
 |--5-5-5-5-5--|--5-5-4-4-5--|--7-7-7-7-7--|--7-7-6-6-7--|
 |-------------|-------------|-------------|-------------|

 |-------------|-------------|---------------|-------------|
 |-------------|-------------|---------------|-------------|
 |--3-3-3-3-3--|--3-3-2-2-3--|---------------|-------------|
 |-------------|-------------|--3-3-3-2-2-2--|--0-0-0-0-0--|

 |-------------|-------------|-------------|-------------|
 |-------------|-------------|-------------|-------------|
 |--5-5-5-5-5--|--5-5-4-4-5--|--7-7-7-7-7--|--7-7-6-6-7--|
 |-------------|-------------|-------------|-------------|

 |-------------|-------------|---------------|-------------|
 |-------------|-------------|---------------|-------------|
 |--3-3-3-3-3--|--3-3-2-2-3--|---------------|-------------|
 |-------------|-------------|--3-3-3-2-2-2--|--0-0-0-0-0--|

 |-------------|-------------|-------------|-------------|
 |-------------|-------------|-------------|-------------|
 |--5-5-5-5-5--|--5-5-4-4-5--|--7-7-7-7-7--|--7-7-6-6-7--|
 |-------------|-------------|-------------|-------------|

 |-------------|-------------|---------------|-------------|
 |-------------|-------------|---------------|-------------|
 |--3-3-3-3-3--|--3-3-2-2-3--|---------------|-------------|
 |-------------|-------------|--3-3-3-2-2-2--|--0-0-0-0-0--|

 |-------------|-------------|-------------|-------------|
 |-------------|-------------|-------------|-------------|
 |--5-5-5-5-5--|--5-5-4-4-5--|--7-7-7-7-7--|--7-7-6-6-7--|
 |-------------|-------------|-------------|-------------|

 |-------------|-------------|---------------|-------------|
 |-------------|-------------|---------------|-------------|
 |--3-3-3-3-3--|--3-3-2-2-3--|---------------|-------------|
 |-------------|-------------|--3-3-3-2-2-2--|--0-0-0-0-0--|

 Outro
 |-------------|-------------|-----------|-----------|-------------|
 |-------------|-------------|-----------|-----------|-------------|
 |--5-5-5-5-5--|--5-5-5-5-5--|--6-6-6-6--|--3-3-3-3--|--5-5-5-5-5--|
 |-------------|-------------|-----------|-----------|-------------|

 |-------------|-------------|-------------|-------------|-------------|
 |-------------|-------------|-------------|-------------|-------------|
 |--5-5-5-5-5--|--1-1-1-1-1--|--3-3-3-3-3--|--5-5-5-5-5--|--5-5-5-5-5--|
 |-------------|-------------|-------------|-------------|-------------|

 |-------------|-------------|-------------|-------------|-------------|
 |-------------|-------------|-------------|-------------|-------------|
 |--6-6-6-6-6--|--3-3-3-3-3--|--5-5-5-5-5--|--5-5-5-5-5--|--1-1-1-1-1--|
 |-------------|-------------|-------------|-------------|-------------|

 |-------------|--------|
 |-------------|--------|
 |--3-3-3-3-3--|-----5--|
 |-------------|--------|

                                UP THE IRONS!!!

  development and support by
dmitry ivanov