rock
 
|tablatures   |lyrics   |discussion forums   |more tabs @ XGuitar.com

Iron Maiden tabs

Fear Is The Key bass tab

Song: Fear is the key
Artist: Iron Maiden
Tabbed by Teemu "T2k5" Aulanko (t2k5@mbnet.fi)
Comments: I had searched for this tab a long time and when I couldn_t find it, 
I decided to make it. This is my first tab and I know there are some mistakes.
  |Fig.1|x2
|--------------------------------|--------------------------------|
|--------------------------------|--------------------------------|
|----7-7-8-------5-/-7-------7-7-|8-------7-/-5-------7-7-8-------|
|0-----------0-0---------0-------|----0-0---------0-----------0-0-|

|--------------------------------| 
|--------------------------------|
|5-/-7-------7-7-8-------3-/-2---|
|--------0-----------0-0---------|
  
  |Fig.2|
|--------------------------------|--------------------------------|
|--------------------------------|--------------------------------|
|--------------------------------|--------------------------------|
|5---5-5-5---5-5-5---5-5-5---5-5-|5---5-5-5---5-5-5---5---5-3-----|

  |Fig.3| x3
|--------------------------------|--------------------------------|
|------------------5-2---------5-|------5-------5---5-2-----------|
|----------------------4---2-4---|----------------------4---2-4---|
|0---0-0-0---0-0-0-------2-------|0---0-0-0---0-0-0-------2-------|
                                  (not when going to fig.4)
|--------------------------------|--------------------------------|
|------5-------5---5-2---------2-|------5-------5---5-2-----------|
|----------------------4---2-4---|----------------------4---2-4---|
|0---0-0-0---0-0-0-------2-------|0---0-0-0---0-0-0-------2-------|

  |Fig.4| 
|(I scream, don_t touch!-part)---|--------------------------------|
|------------------2-2-----------|--------5---------------7-------|
|------------------2-2-----------|3---3-3-----3-3-5---5-5-----5-5-|
|0---0-0-0---0-0-----0-----------|--------------------------------|

|--------------------------------|--------------------------------|
|--------9---------------7-------|--------5---------------7-------|
|7---7-7-----7-7-5---5-5-----5-5-|3---3-3-----3-3-5---5-5-----5-5-|
|--------------------------------|--------------------------------|

|--------------------------------|--------------------------------|
|----------------2-5-------------|--------5---------------7-------|
|--------------------7---5---3---|3---3-3-----3-3-5---5-5-----5-5-|
|0---0-0-0---0-0-----------------|--------------------------------|

|--------------------------------|--------------------------------|
|--------------------------------|--------5---------------7-------|
|--------------------------------|3---3-3-----3-3-5---5-5-----5-5-|
|0---0-0-0---0-0-0---0-0-0---0-0-|--------------------------------|
   |Fig.1|x2
   |Fig.2|x1
   |Fig.3|x2
   |Fig.4|x1
   |Fig.1|x2 
 |Fig.5|x2
|--------------------------------|--------------------------------|
|--------------------------------|--------------------------------|
|0---0-0-0---0-0-0---0-0-3---3-3-|2---2-2-2---2-2-2---2-2-5---5-5-|
|--------------------------------|--------------------------------|

|--------------------------------|--------------------------------|
|--------------------------------|--------------------------------|
|3---3-3-3---3-3-3---3-3-7---7-7-|5---5-5-5---5-5-5---------------|
|--------------------------------|--------------------------------|

 |Fig.6|
|--------------------------------|--------------------------------|
|--------------------------------|--------------------------------|
|--------------------------------|------------------3-2-0-------0-|
|0---------------0---------------|0---------------0-------3-2-3---|

|--------------------------------|--------------------------------|
|--------------------------------|--------------------------------|
|--------------------------------|------------------3---2-0-------|
|0---------------0---------------|0---------------0---------3-2---|

|--------------------------------|--------------------------------|
|--------------------------------|--------------------------------|
|--------------------------------|------------------3-2-0-------0-|
|0---------------0---------------|0---------------0-------3-2-3---|

|--------------------------------|--------------------------------|
|--------------------------------|--------------------------------|
|--------------------------------|--------------------------------|
|0---------------0---------------|0-------------------3---3-2-3---|

|--------------------------------|--------------------------------|
|--------------------------------|--------------------------------|
|--------------------------------|--------------------------------|
|0---------------0---------------|0-------------------------------|

  |Fig.7|
|--------------------------------|--------------------------------|
|--------5---------------7-------|--------9---------------7-------|
|3---3-3-3---3-3-5---5-5-5---5-5-|7---7-7-7---7-7-5---5-5-5---5-5-|
|--------------------------------|--------------------------------|

|--------------------------------|--------------------------------|
|------------5-----------7-------|--------9---------------7-------|
|3---3-3-3---3-3-5---5-5-5---5-5-|7---7-7-7---7-7-5---5-5-5---5-5-|
|--------------------------------|--------------------------------|

|--------------------------------|--------------------------------|
|--------5---------------7-------|--------------------------------|
|3---3-3-3---3-3-5---5-5-5---5-5-|--------------------------------|
|--------------------------------|0---0-0-0---0-0-0---0-0-0---0-0-|

|--------------------------------|
|--------5---------------7-------|
|3---3-3-3---3-3-5---5-5-5---5-5-|
|--------------------------------|

  


|Fig.8|x2
|--------------0-----------------|--------------1-----------------|
|--------------------------------|--------------------------------|
|0---0-0-0-0-0---------0-0-0-0-0-|0---0-0-0-0-0---------0-0-0-0-0-|
|--------------------------------|--------------------------------|

|--------------2-----------------|--------------0-----------------|
|--------------------------------|--------------------------------|
|0---0-0-0-0-0---------0-0-0-0-0-|0---0-0-0-0-0---------0-0-0-0-0-|
|--------------------------------|--------------------------------|

|--------------1-----------------|--------------0-----------------|
|--------------------------------|--------------------------------|
|0---0-0-0-0-0---------0-0-0-0-0-|0---0-0-0-0-0---------0-0-0-0-0-|
|--------------------------------|--------------------------------|

|--------------2-----------------|--------------0-----------------|
|--------------------------------|--------------------------------|
|0---0-0-0-0-0---------0-0-0-0-0-|0---0-0-0-0-0---------0-0-0-0-0-|
|--------------------------------|--------------------------------|

|--------------2-----------------|--------------1-----------------|
|--------------------------------|--------------------------------|
|2---2-2-2-2-2---------2-2-2-2-2-|2---2-2-2-2-2---------2-2-2-2-2-|
|--------------------------------|--------------------------------|

|--------------1-----------------|--------------0-----------------|
|--------------------------------|--------------------------------|
|2---2-2-2-2-2---------2-2-2-2-2-|2---2-2-2-2-2---------2-2-2-2-2-|
|--------------------------------|--------------------------------|

|--------------0-----------------|--------------1-----------------|
|--------------------------------|--------------------------------|
|0---0-0-0-0-0---------0-0-0-0-0-|0---0-0-0-0-0---------0-0-0-0-0-|
|--------------------------------|--------------------------------|

|--------------2-----------------|--------------0-----------------|
|--------------------------------|--------------------------------|
|0---0-0-0-0-0---------0-0-0-0-0-|0---0-0-0-0-0---------0-0-0-0-0-|
|--------------------------------|--------------------------------|

|2-------5-------4-------7-------|5-------9-------8---------------|
|2-------5-------4-------7-------|5-------9-------8---------------|
|0-------3-------2-------5-------|3-------7-------6---------------|
|--------------------------------|--------------------------------|
After that repeat

|2-------5-------4-------7-------|5-------9-------8---------------|
|2-------5-------4-------7-------|5-------9-------8---------------|
|0-------3-------2-------5-------|3-------7-------6---------------|
|--------------------------------|--------------------------------|
Then
   |Intro|x4
   |Fig.5|x2
  development and support by
dmitry ivanov