rock
 
|tablatures   |lyrics   |discussion forums   |more tabs @ XGuitar.com

Iron Maiden tabs

Face In The Sand bass tab

the intro is just guitar, then it goes into:

------------------------------------------
------------------------------------------
------------------------------------------
---0000000000000000000000000000-----------

it does that for a while, but i like to join in with the guitar part, that goes:

------------------------------------------
------------------------------------------
--11-12---9-11---7-9----------------------
--------0------0-----00000----------------

that repeats for a really long time, then goes

------------------------------------------
------------------------------------------
------------------------------------------
8888-999-11-9-8888-999-11-9-888-----------

for the chorus, then goes back to

------------------------------------------
------------------------------------------
--11-12---9-11---7-9----------------------
--------0------0-----00000----------------

and then once again goes
  development and support by
dmitry ivanov