rock
 
|tablatures   |lyrics   |discussion forums   |more tabs @ XGuitar.com

Iron Maiden tabs

Drifter bass tab

Song: Drifter
 Band: Iron Maiden
 Album: Killers
 Transcribed by: Amaury Espinal (powerslave25@hotmail.com)
 Date: 6/28/2004


        (0:04)Intro                       (0:08)
 G-rest-10/12-15-14-12--------------------15-14-12-------------------------
 D---------------------15-14-12-10h12-12-----------15--121212121212121212--
 A-------------------------------------------------------------------------
 E-------------------------------------------------------------------------

 (0:10)Fast                    (0:14)               (0:17)
 G---------------------------------24-------------------------------------------------
 D--------3--------3--------3---24---------------2-4-----------------------------2-4--
 A-555555--5555555--5555555--5---------32-32-3-5-----5555555-555555555-32-32-3-5------
 E------------------------------------------------------------------------------------

                    (0:24)"Look out now,baby...         (0:29)Sittin'here its gonna...
 G--------------------------------------------------------------------------------------------
 D--------------------------------------------------------------------------------------------
 A-5555555-555555555-------------------5555555-555555555-------------------5555555-555555555--
 E-------------------3333333-333333333-------------------3333333-333333333--------------------

                                  (0:38)Gotta keep on roaming...
 G---------------------------------------------------------------------
 D-----------2-4-----------------------------2-4---------------.-------
 A-32-32-3-5-----5555555-555555555-32-32-3-5------555555555555-5-rest--
 E---------------------------------------------------------------------

 (0:48)
 G-10/12-15-14-12--------------------15-14-12-------------------------
 D----------------15-14-12-10h12-12-----------15--121212121212121212--
 A--------------------------------------------------------------------
 E--------------------------------------------------------------------

 (0:53)"What You feeling...                                           (1:03)
 G---------------------------------24-------------------------------------------------
 D--------3--------3--------3---24---------------2-4-----------------------------2-4--
 A-555555--5555555--5555555--5---------32-32-3-5-----5555555-555555555-32-32-3-5------
 E------------------------------------------------------------------------------------

                     (1:07)"Anywhere got to...
 G--------------------------------------------------------------------------------------------
 D--------------------------------------------------------------------------------------------
 A-5555555-555555555-------------------5555555-555555555-------------------5555555-555555555--
 E-------------------3333333-333333333-------------------3333333-333333333--------------------

 (1:17)"Im'gonna get my song...
 G----------------------------------------------------------------
 D-----------2-4-----------------------------2-4---------------.--
 A-32-32-3-5-----5555555-555555555-32-32-3-5------555555555555-5--
 E----------------------------------------------------------------

 (1:26)"Uhhhh"              (1:34)            (1:37)        (1:40)           (1:43)
 G-----------------------------7-------------------------------7------5-----------------5-----
 D---------------------------7---7-5-3-3---------------------7---7--5---5-------------5---5---
 A-5----5-5--3---33-3-233-5--------------5-33----3-33-333-5----------------3----33-3-------5--
 E----5--------3-------------------------------3------------------------------3---------------

 (1:47)                                (1:55)  (1:56)               (1:59)
 G---5----------------------------drums-5-5-5-5-----5-7-75--------------5-7-------
 D-7---7--5-------------------------------------5/7-------7-5-5-5-5--5h7----8-10--
 A---------7-5--3-3---33---3------------------------------------------------------
 E------------------3----3---3-3--------------------------------------------------

            (2:01)                               (2:05)Fast
 G-5-5-5-5-----9101210-109--------------5-7------------9101210-9101210-91012109----
 D----------10------------9-5-5-5-5--5h7----8-10--1010-------------------------10--
 A---------------------------------------------------------------------------------
 E---------------------------------------------------------------------------------

 (2:08)                            (2:11)                            (2:13)
 G---------------------------------------9101210-9101210-91012109-------------------------------------
 D------9101210-9101210-91012109----1010-------------------------10-------9101210-9101210-91012109----
 A-1010-------------------------10-----------------------------------1010-------------------------10--
 E----------------------------------------------------------------------------------------------------

 (2:16)                          (2:25)
 G------9101210-91012109----rest-10/12-15-14-12--------------------15-14-12-------------------------
 D-1010-----------------------------------------15-14-12-10h12-12-----------15--121212121212121212--
 A------------------------5-------------------------------------------------------------------------
 E--------------------------------------------------------------------------------------------------

 (2:30)"What you feeling...
 G---------------------------------24-------------------------------------------------
 D--------3--------3--------3---24---------------2-4-----------------------------2-4--
 A-555555--5555555--5555555--5---------32-32-3-5-----5555555-555555555-32-32-3-5------
 E------------------------------------------------------------------------------------

                    (2:44)"Anywhere got to get...
 G--------------------------------------------------------------------------------------------
 D--------------------------------------------------------------------------------------------
 A-5555555-555555555-------------------5555555-555555555-------------------5555555-555555555--
 E-------------------3333333-333333333-------------------3333333-333333333--------------------


 G--------------------------------------------------------------------
 D-----------2-4-----------------------------2-4----------------------
 A-32-32-3-5-----5555555-555555555-32-32-3-5------555555-55555-55555--
 E--------------------------------------------------------------------

 (3:03)Solo             (3:07)       (3:08)               (3:11)
 G------------------------------------------------------------------------
 D------------------------4-4-4-5-4-------------------------4-4------4-4--
 A-333333-333-2---5-5555-5-5-------5--333333-333-2---5-555-5-5--555-5-5---
 E--------------5----------------------------------5----------------------

 (3:13)                       (3:15)
 G-----------------------------57777777777775----------------------------------------------
 D-----------------------4-4--7--------------7--------------------------------------4------
 A-333333-333-2---5-555-5-5---------------------333333-333-2---5-555555-555555-555-5-5-----
 E--------------5--------------------------------------------5-----------------------------

 (3:22)                  (3:25)
 G------------------------------7----5--------------------------------------
 D------------------------4-4-5--7--5-5-------------------------------------
 A-333333-333-2---5-5555-5-5------------333333-333-2---5-555555-555555-555--
 E--------------5------------------------------------5----------------------

 (3:31)                 (3:35)
 G-------------------------------------------------------------------------
 D------------------------4-4-444-54---------------------------------------
 A-333333-333-2---5-5555-5-5--------5--333333-333-2---5-555555-555555-555--
 E--------------5-----------------------------------5----------------------

 (3:40)"gonna sing...  (3:43)
 G------------------------------------------------------------------------
 D----------------------4-4--444--4-54------------------------------------
 A-333333-333-2---5-55-5-5--5----5----5--333333-333-2---5-555555-5555555--
 E--------------5-------------------------------------5-------------------

 (3:50)"I want you to...              (3:55)              (3:58)
 G-------------------------------------------------------------------------
 D-------------------------------------------------------------------------
 A-3333-3333-3333-3333-555555-5555555--3333-3333-3333-3333-555555-5555555--
 E-------------------------------------------------------------------------

 (3:59)"I want you to sing it...                                 (4:08)
 G------------------------------------------------------------------7--5-----
 D----------------------------------------------------------------7---7-75---
 A-3333-3333-3333-3333-555555-5555555--3333-3333-3333-3333-555555---------7--
 E---------------------------------------------------------------------------

 (4:09)                       (4:13)                        (4:17)
 G-------------------------------------------------------------------7777777775---
 D------------------------------4-44445-----------------------4-4--7-----------7--
 A-333333-333-2---5-5555555-55-5--------333333-333-2---5-555-5-5------------------
 E--------------5------------------------------------5----------------------------

 (4:18)                (4:21)                            (4:25)  (4:27)
 G----------------------------7----5--------------------------------7-----------------
 D----------------------4-4-5--7--5-5-4-4-------------------2-4---7---7---------------
 A-333333-333-2---5-55-5-5-------------5---333333-3333333-5-----5-------555555555555--
 E--------------5---------------------------------------------------------------------

 (4:30)                (4:33)                                   (4:44)
 G----777777775--75---------------------------------------------------
 D-79----------7---7-5--------------------------------------------.---
 A--------------------7-55555555555555555555555555555555555-drums-5---
 E--------------------------------------------------------------------


 Any comments or corrections, email me: powerslave25@hotmail.com
 Dedicada a todos los fans de Iron Maiden en la Republica Dominicana
 y en todo el mundo.
  development and support by
dmitry ivanov