rock
 
|tablatures   |lyrics   |discussion forums   |more tabs @ XGuitar.com

Iron Maiden tabs

Dont Look To The Eyes Of A Stranger guitar tab

"Don't Look To The Eyes Of A Stranger"
by Iron Maiden

Transcribed by John Twynam (wratchild@geocities.com)


All guitars tune down 1/2 step.

Chorus Riff:
Eb||---------------------------------|--------------------------|
Bb||---------------------------------|--------------------------|
Gb||----------14-------------10------|--------9-----------5-----|
Db||------14------14-----10------10--|-----9-----9-----5-----5--|
Ab||--12--------------8--------------|--7-----------3-----------|
Eb||---------------------------------|--------------------------|
                                                                      
---------------------------------|--------------------------|
---------------------------------|--------------------------|
----------14-------------10------|--------9-----------7-----|
------14------14-----10------10--|-----9-----9-----7-----7--|
--12--------------8--------------|--7-----------5-----------|
---------------------------------|--------------------------|


Riff 1:
Eb||---------------------|-------------------------|
Bb||---------------------|-------------------------|
Gb||---------4--5--------|----4--5--4--5--4--------|
Db||------7--------------|-------------------7--5--|
Ab||---------------------|-------------------------|
Eb||---------------------|-------------------------|

---------------------|-------------------------|
---------------------|-------------5-----------|
---------4--5--------|----4--5--7-----7--5--4--|
------7--------------|-------------------------|
---------------------|-------------------------|
---------------------|-------------------------|


Riff 2:
Eb||-----|--------17----------17----------|--15------13----------|
Bb||-----|----17----------17----------17--|--15------13----------|
Gb||-14--|------------14----------14------|--12------10----------|
Db||-----|--------------------------------|----------------------|
Ab||-----|--------------------------------|----------------------|
Eb||-----|--------------------------------|----------------------|


Riff 2a:
Eb||-----|-------------------------|--------------------|
Bb||-----|-------------------------|--------------------|
Gb||-----|-------------------------|--------------------|
Db||-----|-------7--------7--------|--5------3----------|
Ab||-----|----7--------7--------7--|--5------3----------|
Eb||--5--|----------5--------5-----|--3------1----------|


Verse Riff:
Eb||--------------------------|--------------------|
Bb||--------------------------|--------------------|
Gb||--------------------------|--------------------|
Db||--7-----7--------7--------|--5------3----------|
Ab||--7-----7--------7--------|--5------3----------|
Eb||--5--5--5--5--5--5--5--5--|--3------1----------|
                                                                     
--------------------------|--------------------|----------------|
--------------------------|--------------------|----------------|
--------------------------|--------------------|--5----5--------|
--7-----7--------7--------|--5------3----------|--5----5--------|
--7-----7--------7--------|--5------3----------|--3----3--------|
--5--5--5--5--5--5--5--5--|--3------1----------|----------------|
                                                                    
-------------------|--------------------------|-----------------|
-------------------|--------------------------|-----------------|
--7----------------|--------------------------|-----------------|
--7----------------|--7-----7--------7--------|--5------3-------|
--5----------------|--7-----7--------7--------|--5------3-------|
-------------------|--5--5--5--5--5--5--5--5--|--3------1-------|


Riff 3:
                               4x                            4x
Eb||----------------------------||----------------------------||
Bb||----------------------------||----------------------------||
Gb||*--------------------------*||*--------------------------*||
Db||*-----2-----2-----2-----2--*||*--------------------------*||
Ab||---0-----0-----0-----0------||------3-----3-----3-----3---||
Eb||----------------------------||---1-----1-----1-----1------||

                            4x                            2x
----------------------------||----------------------------||
----------------------------||----------------------------||
*--------------------------*||*--------------------------*||
*-----7-----7-----7-----7--*||*-----5-----5-----5-----5--*||
---5-----5-----5-----5------||---3-----3-----3-----3------||
----------------------------||----------------------------||
                                                                     
--------------------------|--------------------------|
--------------------------|--------------------------|
--------------------------|--------------------------|
-----7-----7-----7-----7--|--------------------------|
--5-----5-----5-----5-----|-----3-----3-----5-----5--|
--------------------------|--1-----1-----3-----3-----|


Riff 3a:
Eb||---------------------|---------------------|---------------------|
Bb||---------------------|---------------------|---------------------|
Gb||------5p-4-----------|------5p-4-----------|------5p-4--------7--|
Db||--------------5------|--------------5------|---------------------|
Ab||---------------------|---------------------|---------------------|
Eb||---------------------|---------------------|---------------------|
                          
---------------------|--||
---------------------|--||
------5p-4-----------|--||
--------------5------|--||
---------------------|--||
---------------------|--||


Riff 3b:
                               4x                            4x
Eb||----------------------------||----------------------------||
Bb||----------------------------||----------------------------||
Gb||*--------------------------*||*--------------------------*||
Db||*--2--2--2--2--2--2--2--2--*||*--------------------------*||
Ab||---0--0--0--0--0--0--0--0---||---3--3--3--3--3--3--3--3---||
Eb||----------------------------||---1--1--1--1--1--1--1--1---||

                            4x                            2x
----------------------------||----------------------------||
----------------------------||----------------------------||
*--------------------------*||*--------------------------*||
*--7--7--7--7--7--7--7--7--*||*--5--5--5--5--5--5--5--5--*||
---5--5--5--5--5--5--5--5---||---3--3--3--3--3--3--3--3---||
----------------------------||----------------------------||
                                                                     
--------------------------|--------------------------|
--------------------------|--------------------------|
--------------------------|--------------------------|
--7--7--7--7--7--7--7--7--|--------------------------|
--5--5--5--5--5--5--5--5--|--3--3--3--3--5--5--5--5--|
--------------------------|--1--1--1--1--3--3--3--3--|


Riff 4:
Eb||----------------------|-----------------------|
Bb||----------------------|-----------------------|
Gb||----------------------|------------------5----|
Db||------7--5--7------5--|--7--5--7----5---------|
Ab||----------------------|-----------------------|
Eb||----------------------|-----------------------|


Riff 5:
Eb||-----------------------|------------------------|
Bb||-----------------------|------------------------|
Gb||------9--7--9----9--7--|--9----9--7--9----10----|
Db||-----------------------|------------------------|
Ab||-----------------------|------------------------|
Eb||-----------------------|------------------------|
                                                                      
-----------------------|------------------|
-----------------------|------------------|
--9p-7-----------------|------------------|
--------7\-5h-7--------|--7---------------|
-----------------------|------------------|
-----------------------|------------------|


Riff 6:
Eb||-------------------------|---------------------|
Bb||-------------------------|---------------------|
Gb||-------------------------|---------------------|
Db||--7--7--7--7--7----7--7--|--7--7--7------------|
Ab||--7--7--7--7--7----7--7--|--7--7--7------------|
Eb||--5--5--5--5--5----5--5--|--5--5--5------------|
                                                                    
-------------------------|-----------------------|
-------------------------|-----------------------|
-------------------------|------------------5----|
--7--7--7--7--7----7--7--|--7--7--7----5----5----|
--7--7--7--7--7----7--7--|--7--7--7----5----3----|
--5--5--5--5--5----5--5--|--5--5--5----3---------|


Riff 6a:
Eb||-------------------------|---------------------|
Bb||-------------------------|---------------------|
Gb||-------------------------|---------------------|
Db||--7--7--7--7--7----7--7--|--7--7--7------------|
Ab||--7--7--7--7--7----7--7--|--7--7--7------------|
Eb||--5--5--5--5--5----5--5--|--5--5--5------------|
                                                                     
-----------------------|--------------------|
-----------------------|--------------------|
-----------------------|---------------5----|
--7--7--7--7--7--------|----------5----5----|
--7--7--7--7--7--------|----------5----3----|
--5--5--5--5--5--------|----------3---------|


Riff 6b:
Eb||-----------------------|--------------------|
Bb||-----------------------|--------------------|
Gb||-----------------------|---------------5----|
Db||--7--7--7--7--7--------|----------5----5----|
Ab||--7--7--7--7--7--------|----------5----3----|
Eb||--5--5--5--5--5--------|----------3---------|


Riff 6c:
-------------------------|-----------------------|
-------------------------|-----------------------|
-------------------------|------------------5----|
--7--7--7--7--7----7--7--|--7--7--7----5----5----|
--7--7--7--7--7----7--7--|--7--7--7----5----3----|
--5--5--5--5--5----5--5--|--5--5--5----3---------|


Solo rhythm:
Eb||-------------------|------------------|------------------|
Bb||-------------------|------------------|------------------|
Gb||-------------------|------------------|------------------|
Db||--7----------------|------------------|------------------|
Ab||--7----------------|------------------|------------------|
Eb||--5----------------|------------------|------------------|
                                                            
--------------------|-------------------|------------------|
--------------------|-------------------|------------------|
--------------------|-------------------|------------------|
--7--------5--------|--3----------------|------------------|
--7--------5--------|--3----------------|------------------|
--5--------3--------|--1----------------|------------------|
                                                                    
-------------------|--------------------|
-------------------|--------------------|
--7----------------|--------------------|
--7----------------|----------3----5----|
--5----------------|----------3----5----|
-------------------|----------1----3----|


Riff 7:
Eb||----------------------|-----------------------|
Bb||----------------------|-----------------------|
Gb||----------------------|-------------5---------|
Db||------7--5--7------5--|--7--5--7---------7----|
Ab||----------------------|-----------------------|
Eb||----------------------|-----------------------|


Guitar Solo 1:
Eb||------------------------|-----------------------|
Bb||------------------------|-----------------------|
Gb||--7b---7b---7p-5--------|-----------------------|
Db||------------------7p-5--|-----------------------|
Ab||------------------------|--7p-5--0h-3--5~-------|
Eb||------------------------|-----------------------|
                                                  
---------------------|---------------------------|
---------------------|----5----------------------|
--7b-------7b-----7b-|-------7p-5h-7p-5----------|
---------------------|-------------------7--5----|
---------------------|---------------------------|
---------------------|---------------------------|
                                               
----------------------|-----------------------|
----------------------|-----------------------|
-------5----5b---5----|--5b---5---------5-----|
--7-------------------|--------------7-----7--|
----------------------|-----------------------|
----------------------|-----------------------|
                                                               
---------------------------|----------------------------------|
---------------------------|----------------------------------|
--7---------5h-7p-5-----5/-|----------12------12h-14--12------|
-------7-------------7-----|--12h-14------14--------------14--|
---------------------------|----------------------------------|
---------------------------|----------------------------------|
                                                          
----------------------|------12--12------12--12------12--|
--------15b-----------|--15b---------15b---------15b-----|
--12------------------|----------------------------------|
----------------------|----------------------------------|
----------------------|----------------------------------|
----------------------|----------------------------------|
                                                  
------12--12------12--15b-----|------------------|
--15b---------15b-------------|------------------|
------------------------------|------------------|
------------------------------|------------------|
------------------------------|------------------|
------------------------------|------------------|
                                                  
--------17----19----20----|--20b-------------20b-|
--20b---------------------|----------------------|
--------------------------|----------------------|
--------------------------|----------------------|
--------------------------|----------------------|
--------------------------|----------------------|
                                                                     
------20----19----17----|----------------------|
------------------------|--20----20b-----------|
------------------------|----------------------|
------------------------|----------------------|
------------------------|----------------------|
------------------------|----------------------|


Guitar Solo 2:
Eb||-----------------------|------------------------|
Bb||-----------------------|------------------------|
Gb||--7b---7b---7b---7p-5--|--7p-5--7p-5--7b-----5--|
Db||-----------------------|------------------------|
Ab||-----------------------|------------------------|
Eb||-----------------------|------------------------|
                                                         
--------------------------|-----------------------------|
--------8p-5--------------|-----------------------------|
--7p-5--------7p-5--7p-5--|-----------------------------|
--------------------------|--7p-5--7p-5-----------------|
--------------------------|--------------7--5\-3--5p-3--|
--------------------------|-----------------------------|
                                             
----------------------|---------------------|
----------------------|---------------------|
-------5----7----7b---|--7b-----------------|
--5-------------------|---------------14----|
----------------------|---------------------|
----------------------|---------------------|
                                              
--------------------------|------------------|
--------13b---13b---13b---|------------------|
--12----------------------|------------------|
--------------------------|------------------|
--------------------------|------------------|
--------------------------|------------------|

  trill      trill         trill     trill          
------------------------|---------------------|
--11-(12)----10-(11)----|--9-(10)----8-(9)----|
------------------------|---------------------|
------------------------|---------------------|
------------------------|---------------------|
------------------------|---------------------|

  trill  trill       trill  trill  trill  trill       
------------------|------------------------------|
--7-(8)--6-(7)----|--5-(6)--4-(5)--3-(4)--2-(3)--|
------------------|------------------------------|
------------------|------------------------------|
------------------|------------------------------|
------------------|------------------------------|
                                               
--20--19--17h19p17----17h18p17----17p15-------|
-------------------20----------20-------18-17-|
----------------------------------------------|
----------------------------------------------|
----------------------------------------------|
----------------------------------------------|
                                       
--------------------------------------|
--18--17--17h-18p-17--15--15b-15--13--|
--------------------------------------|
--------------------------------------|
--------------------------------------|
--------------------------------------|
                                                                    
----------------------------------|--------------------------|
--15p-13--------------------------|----------------13--------|
----------14p-12--14p-12----------|----------12--------------|
--------------------------14p-12--|--12h-14------------------|
----------------------------------|--------------------------|
----------------------------------|--------------------------|

Here's the order in which the riffs are played:


Guitar 1:			Guitar 2:

Chorus Riff (twice)		Chorus Riff (twice)
Chorus Riff (twice)		Riff 1 (twice)
Chorus Riff (twice)		Chorus Riff (twice)
Chorus Riff (twice)		Riff 1 (twice)
Chorus Riff (twice)		Chorus Riff (twice)
Riff 2 (4 times)		Riff 2a (4 times)
Verse Riff (twice)		Verse Riff (twice)
Riff 2 (twice)			Riff 2a (twice)
Verse Riff (twice)		Verse Riff (twice)
Riff 2 (twice)			Riff 2a (twice)
Chorus Riff (twice)		Chorus Riff (twice)
Chorus Riff (twice)		Riff 1 (twice)
Chorus Riff (twice)		Chorus Riff (twice)
Riff 3a (many times)		Riff 3 (twice)
Riff 4 (8 times)		Riff 4 (8 times)
Riff 5 (4 times)		Riff 5 (4 times)
Riff 6				Riff 6
Riff 4 (4 times)		Riff 4 (4 times)
Guitar Solo 1			Solo Rhythm
Riff 6a				Riff 6a
Riff 4 (4 times)		Riff 4 (4 times)
Solo Rhythm			Guitar Solo 2
Riff 6b				Riff 6b
Riff 5 (4 times)		Riff 5 (4 times)
Riff 7 (8 times)		Riff 7 (8 times)
Chorus Riff (4 times)		Chorus Riff (4 times)
Chorus Riff (twice)		Riff 1 (twice)
Riff 6c				Riff 6c
  development and support by
dmitry ivanov