rock
 
|tablatures   |lyrics   |discussion forums   |more tabs @ XGuitar.com

Iron Maiden tabs

Doctor, Doctor guitar tab

DOCTOR, DOCTOR(UFO)

TRANSCRITO POR: ASIER  ALKORTA ZABALETA
ALBUM: CARA B DEL SINGLE VIRUS
GRUPO:IRON MAIDEN


 Dm                        A#               Am
|----------5-------------------------------------------------------------------|
|--------6---6--------------6--9--6--------------5--8--5-----------------------|
|------7-------7----------7---------7----------7---------7---------------------|
|----7-----------7------8-------------8------7-------------7-------------------|
|--5---------------------------------------------------------------------------|
|---------------------6--------------------5-----------------------------------|



DOCTOR, DOCTOR PLEASE...

SE REPITE EL ESQUEMA RITMICO DEL D5
                                     _________ __________________
  D5                     Bb5   F5    |1.  C5   |2. G5  A5 
|------------------------------------|---------|-------------------------------|
|------------------------------------|---------|-------------------------------|
|-7-7--7-7--7-7--7-7-----3-----------|-----5---|-------------------------------|
|-7-7--7-7--7-7--7-7-----3-----3-----|-----5---|----5---7----------------------|
|-5-5--5-5--5-5--5-5-----1-----3-----|-----3---|----5---7----------------------|
|------------------------------1-----|---------|----3---5----------------------|



LIVING...

  D5 Bb5 C5 F5 G5 A5 D5  
|------------------------------------------------------------------------------|
|------------------------------------------------------------------------------|
|--7--3--5-----------7---------------------------------------------------------|
|--7--3--5--3--5--7--7---------------------------------------------------------|
|--5--1--3--3--5--7--5---------------------------------------------------------|
|-----------1--3--5------------------------------------------------------------|


CODA:

                                  D5
|--3/5-------------------------------------------------------------------------|
|------8-6-------------------------3-------------------------------------------|
|----------7-5---------------------2-------------------------------------------|
|--------------7-5-----------------0-------------------------------------------|
|-----------------3/5-3--------------------------------------------------------|
|-----------------------5-5-3-1-3----------------------------------------------|




  development and support by
dmitry ivanov