rock
 
|tablatures   |lyrics   |discussion forums   |more tabs @ XGuitar.com

Iron Maiden tabs

Dance Of Death bass tab

I made this tab as best as i could. 
If you do see a mistake or have any questions or there are any other 
Iron Maiden songs you want me to tab for you please e-mail me at brucklepea@hotmail.com.
Thanks.


Band-   Iron Maiden
Album-  Dance of death
Song-   Dance of death


> = slide to
~ = let ring
| = pause
h = hammer on

Intro part1
G|------------------------------------------------------------
D|---9---9------12----12------7---7-----5---5-----5---5-------
A|-7---7---7-10----10----10-5---5---5-3---3---3-3---3---3-----
E|------------------------------------------------------------

Intro part1 (continued)
G|------------------------------------------------------------
D|---7---7-----9---9-----9---9-----9---9------12----12--------
A|-5---5---5-7---7---7-7---7---7-7---7---7-10----10----10-----
E|------------------------------------------------------------


Intro part1 (continued)
G|---------------------------------------------------------------
D|---7---7-----2---2-----5---5-----7---7-----9---9-----9---9-----
A|-5---5---5-0---0---0-3---3---3-5---5---5-7---7---7-7---7---7--- x4
E|---------------------------------------------------------------

Intro part2
G|----------------------------------------------------------
D|----------------------------------------------------------
A|-7-7-7-7-7-10-10-10-10-10-5-5-5-5-5-3-3-3-3-3-3-3-3-3-3---
E|----------------------------------------------------------

Intro part2 (continued)
G|----------------------------------------------------------
D|----------------------------------------------------------
A|-5-5-5-5-5-7-7-7-7-7-7-7-7-7-7-7-7-7-7-7-10-10-10-10-10---
E|----------------------------------------------------------

Intro part2 (continued)
G|--------------------------------------------------------------
D|--------------------------------------------------------------
A|-5-5-5-5-5-0-0-0-0-0-3-3-3-3-3-5-5-5-5-5-7-7-7-7-7-7-7-7-7-7-- x2
E|--------------------------------------------------------------

Break
G|-----------------------------------
D|-----------------------------------
A|-7-7-7-7-7-7-7-7-7-7-7-7-7-7-------
E|-----------------------------------


Intro part2 x6

Main riff (guitar)
G|-------------------------------------
D|-------------------------------------
A|-7-7-7-7-7-7-7-7-9-9-9-9-10-9-7-5-7-- x6
E|-------------------------------------

Verse
G|-----------------------------------------------------------------
D|-------------------------------------------10-9------------------
A|-7-7-7-7-9-10-10-10-10-12-5-5-5-5-10-7-7-7------12-10-12-10-9-5--
E|-----------------------------------------------------------------

Verse (continued)
G|------------------------------------------------------
D|-------------------------------------------10-10-9-9--
A|-7-7-7-7-9-10-10-10-10-12-5-5-5-5-10-7-7-7------------ x2
E|------------------------------------------------------

Main riff x8

Verse x2

Bridge part1 (solo)
G|---------------------------------------------------------
D|---------------------------------------------------------
A|-9-9-9-9-9-9-12-5-5-5-5-5-5-12-7-7-7-7-7-7-9-9-9-9-9-9--- x6
E|---------------------------------------------------------

Bridge part2
G|---------------------------------------------------------
D|---------------------------------------------------------
A|-7-7-7-7-7-7-10-3-3-3-3-3-3-10-5-5-5-5-5-5-7-7-7-7-7-7--- x4
E|---------------------------------------------------------

Verse x2


Bridge part2 x4

Main riff x10

Outro
G|--------------
D|--------------
A|-3-5~-10-5~---
E|--------------

Intro part1 x2

Please rate this tab and put your comments. Thankyou.
  development and support by
dmitry ivanov