rock
 
|tablatures   |lyrics   |discussion forums   |more tabs @ XGuitar.com

Iron Maiden tabs

Como Estais Amigos guitar tab

                               COMO ESTAIS AMIGOS
                                    by
                                 IRON MAIDEN

STANDARD TUNNING


INTRO                                            "como    estais   amigo..."
                                           |
E-------1-0-------1-0-------1-0--------1-0-|------1-0-------1-0--------1-0--
B------------------------------------------|--------------------------------
G----2---------2---------2----------2------|---2---------2----------2-------
D--0---------0---------0----------0--------|-0---------3--------------------
A------------------------------------------|----------------------3---------
E------------------------------------------|--------------------------------

                          "shall we keep the fires burning..."

E-------1-P-0-----|---------------------------------------------------------
B-------------3---|----------------3-----------------5----------------------
G----2----------2-|------------3-------3---------5-------5------------------
D-----------------|----------3---3---3---3-----5---5---5---5----------------
A--2--------------|--------1-----------------3------------------------------
E-----------------|---------------------------------------------------------


          "shall we try to             remember..."
                                                                    
E---------1-0--------1-0----------------------------------------------------
B-------------------------------1-------------------------------------------
G------2----------2-----------------------2----------3----------0-----------
D----0----------3------------2-----2----2---2------3---3------2---2---------
A--------------------------3----------0----------1----------3---------------
E---------------------------------------------------------------------------
  "amigos no more tears..."| last time do this 
E---------1-0-------1-0--|-------------------------------0------------------
B------------------------|-------3----------3----------------3--------------
G------2---------2-------|-----2---2------2---2-----0----------2-0----------
D----0---------0---------|---0--------------------3---3---------------------
A------------------------|-------------3--------1---------------------------
E------------------------|--------------------------------------------------


    "ah ooh ah oohhh..                       "ah ooh ah oohhh..."
E-------------------------------0----------|---------------------------1-0-
B--------3----------3----------------3-----|-------------------------------
G------2---2------2---2-----0----------2-0-|-------0--------2--------2-----
D----0--------------------3---3------------|-----2---2----2---2----0-------
A--------------3--------1------------------|---3--------0------------------
E------------------------------------------|-------------------------------

then back to intro verse riff


heavy with distortion

 "shall we dance the dance in sunlight..."  pm.............................
E----------------------------------------|-|--------------------------------
B----------------------------------------|-|--------------------------------
G---3-3-3-3-3-3-3-3---5-5-5-5-5-5-5-5----|-|------7--------3--------5-------
D---3-3-3-3-3-3-3-3---5-5-5-5-5-5-5-5----|-|----7---7----3---3----5---5-----
A---1-1-1-1-1-1-1-1---3-3-3-3-3-3-3-3----|-|--5--------1--------3-----------
E----------------------------------------|-|--------------------------------

 .......................................      
E-----------------------------------------|-|---------------------------------
B-----------------------------------------|-|---------------------------------
G------2-------3-------5----7-7-7-7-7-7-7-|-|-7-7-7--5-5-5--3-3-3-3-3-3-3-----
D----2---2---3---3---5---5--7-7-7-7-7-7-7-|-|-7-7-7--5-5-5--3-3-3-3-3-3-3-----
A--0-------1-------3--------5-5-5-5-5-5-5-|-|-5-5-5--3-3-3--1-1-1-1-1-1-1-----
E-----------------------------------------|-|---------------------------------


   "ah ooh ah oohhh..."          "ah ooh ah oohhh..."
E-------------------------------------------------------------|-------------
B-------------------------------------------------------------|-------------
G-7-7-7--5-5-5--3-3-3-3-3-3-3-----7-7-7--5-5-5--3-3-3-3-3-3-3-|-------------
D-7-7-7--5-5-5--3-3-3-3-3-3-3-----7-7-7--5-5-5--3-3-3-3-3-3-3-|-------------
A-5-5-5--3-3-3--1-1-1-1-1-1-1-----5-5-5--3-3-3--1-1-1-1-1-1-1-|-------------
E-------------------------------------------------------------|-------------


 "ah ohh ah ooooohhh..."          ...into two guitar melody
E--------------------------------|------------------------------------------
B--------------------------------|------------------------------------------
G--5-5-5---2-2-2---7-7-7-7-7-7-7-|------------------------------------------
D--5-5-5---2-2-2---7-7-7-7-7-7-7-|------------------------------------------
A--3-3-3---0-0-0---5-5-5-5-5-5-5-|------------------------------------------
E--------------------------------|------------------------------------------


first guitar
E---------------------------~----------------------------------|-|-----------
B-----------~----6-5-6-5--3-1--5-3-5-3-1--~----6-5-6-5------/8-|-|-----------
G-------0-2-3-----------------------------3-------------7-5----|-|-----------
D-0-2-3--------------------------------------------------------|-|-----------
A--------------------------------------------------------------|-|-----------
E--------------------------------------------------------------|-|-----------

second guitar
E-------------------------------------~------------------~-------------------
B------------------~--18-17-18-17-15-13--/17-15-17-15-13-11---18-17-18-17----
G-----------12-14-15---------------------------------------------------------
D--12-14-15------------------------------------------------------------------
A----------------------------------------------------------------------------
E----------------------------------------------------------------------------


E---------~------------------------------------------------------------------
B-------/-20-----------------------------------------------------------------
G-19-17----------------------------------------------------------------------
D----------------------------------------------------------------------------
A----------------------------------------------------------------------------
E----------------------------------------------------------------------------



TABED BY: MARK D         
any requests email me at :FearFull@sprint.ca
  development and support by
dmitry ivanov