rock
 
|tablatures   |lyrics   |discussion forums   |more tabs @ XGuitar.com

Iron Maiden tabs

Como Estais Amigos bass tab

BAND: IRON MAIDEN
SONG: Como Estais Amigos
As performed on "Virtual XI"

Tabbed by Natko Bajic
e-mail: trooper@beer.com
URL: www.geocities.com/hr_trooper/tabulatures.html
(Largest archive of Iron Maiden bass tabs on the internet!!!)



   Intro                  (0:06) Verse
G------------------------------------------------------------------------
D--------------------------------3-----------------------3---------------
A--r-----5-----5-----5-----5-----------3-----2-----5-----------3-----2---
E------------------------------------------------------------------------
Play very slowly

                                                  (0:30)
G----------------------------------------------------------------------
D--------3-----------------------3-------------------------------------
A--5-----------3-----2-----5-----------3-----2-----1----------3--------
E----------------------------------------------------------------------

                        (0:41)                                         (0:53)
G---------------------------------------------------------------------------
D------------------------------3--------------------------------------------
A--1----------3----------5-----------3-----0-----1-----3-----5----------5---
E---------------------------------------------------------------------------

Chorus
G-----------------------------------------------------------------------------
D--3----------------------------------------------3---------------------------
A--------3-----0-----1-----3-----5----------5-----------3-----0-----1-----3---
E-----------------------------------------------------------------------------

  (1:12)                                        (1:23)                 (1:29)
G---------------------------------------------------------------------------
D---------------------------------------------------------------------------
A--5-----3-----1----------5-----3-----1----------3-----0-----5----------5---
E---------------------------------------------------------------------------

Verse
G------------------------------------------------------------------------------
D--3-----------------------3-----------------------3-----------------------3---
A--------3-----2-----5-----------3-----2-----5-----------3-----2-----5---------
E------------------------------------------------------------------------------

               (1:52)
G------------|--------------------------------------------------------------
D------------|--------------------------------------------------------------
A--3-----2---|--1--1--1--1--1--1--1--1--3--3--3--3--3--3--3--3--1--1--1--1--
E------------|--------------------------------------------------------------
              Faster
                                      (2:04)
G---------------------------------------------------------------------------
D---------------------------------------------------3--3--3--3--------------
A--1--1--1--1--3--3--3--3--3--3--3-3-3--5--5--5--5--------------3--3--3--3--
E---------------------------------------------------------------------------

                                                                (2:14) Chorus
G----------------------------------------------------------------------------
D----------------------------------------------------------------------------
A--0--0--0--0--1--1--1--1--3--3--3--3--5--5--5--5--5--5--5-5-5---5--5--5--5--
E----------------------------------------------------------------------------


G--------------------------------------------------------------------------
D--3--3--3--3--------------------------------------------------------------
A--------------3--3--3--3--0--0--0--0--1--1--1--1--3--3--3--3--5--5--5--5--
E--------------------------------------------------------------------------


G--------------------------------------------------------------------------
D--------------------------3--3--3--3--------------------------------------
A--5--5--5--5--5--5--5--5--------------3--3--3--3--0--0--0--3--1--1--1--1--
E--------------------------------------------------------------------------

              (2:33)
G------------------------------------------------------------------------------
D------------------------------------------------------------------------------
A--3--3--3--3--5--5--5--5-5-3--3--3--3-3-1--1--1--1--1--1--1--1--5--5--5--5-5--
E------------------------------------------------------------------------------


G-----------------------------------------------------------------------------
D-----------------------------------------------------------------------------
A--3--3--3--3-3-1--1--1--1--1--1--1--1--5--5--5--5-5-3--3--3--3-3-1--1--1--1--
E-----------------------------------------------------------------------------

  (2:48)                                                       (2:53) Pre-solo
G---------------------------------------------------------------------------
D---------------------------------------------------------------------------
A--3--3--3--3--0--0--0--0--5--5--5--5--5--5--5-5-5--5--5--5--r--5--5--5--r--
E---------------------------------------------------------------------------


G--------------------------------------------------------------------------
D--------------------------------------------------------------------------
A--1--1--1--r--3--3--3--r--0--0--0--r--1--1--1--1--1--1-1-1--3--3--3--3--3-
E--------------------------------------------------------------------------


G------------------------------------------------------------------------
D------------------------------------------------------------------------
A--3-3-3--5--5--5--r--1--1--1--r--3--3--3--r--0--0--0--r--1--1--1--1--1--
E------------------------------------------------------------------------

                   Solo starts at 3:14   /Steve made up this part probably
G------------------------------|------9---10---9--------7---9---7----
D------------------------------|--0-7---7----7---7--r-5---5---5---5--
A--1-1-1--3--3--3--3--3--3-3-3-|-------------------------------------
E------------------------------|-------------------------------------
                                 More faster

to keep him awake/
G------5---7---5----------------------9---10---9--------7---9---7---
D----3---3---3--------------------0-7---7----7---7--r-5---5---5---5-
A--1----------------------------------------------------------------
E-----------------3--3--3--3--1-------------------------------------


G------5---7---5----------------------9---10---9--------7---9---7---
D--r-3---3---3--------------------0-7---7----7---7--r-5---5---5---5-
A--------------------------------------------------------------------
E-----------------3--3--3--3--1--------------------------------------


G------5---7---5----------------------9---10---9--------7---9---7---
D--r-3---3---3--------------------0-7---7----7---7--r-5---5---5---5-
A-------------------------------------------------------------------
E-----------------3--3--3--3--1-------------------------------------

                                  (3:33)        Solo ends  (3:36) Pre-solo
G------5---7---5-----------------|--------------------------------------
D--r-3---3---3-------------------|--------------------------------------
A--------------------------------|-3--3--3--3--0--0--0--0---5--5--5--r--
E-----------------3--3--3--3--1--|--------------------------------------
                                  Fast as before this wake-up part

G--------------------------------------------------------------------------
D--------------------------------------------------------------------------
A--1--1--1--r--3--3--3--r--0--0--0--r--1--1--1--1--1--1-1-1--3--3--3--3--3-
E--------------------------------------------------------------------------


G------------------------------------------------------------------------
D------------------------------------------------------------------------
A--3-3-3--5--5--5--r--1--1--1--r--3--3--3--r--0--0--0--r--1--1--1--1--1--
E------------------------------------------------------------------------

                               (3:56) Verse
G-------------------------------------------------------------------------------
D-------------------------------------------------------------------------------
A--1-1-1--3--3--3--3--3--3-3-3--1--1--1--1--1--1--1--1--3--3--3--3--3--3--3--3--
E-------------------------------------------------------------------------------


G--------------------------------------------------------------------------
D--------------------------------------------------------------------------
A--1--1--1--1--1--1--1--1--3--3--3--3--3--3--3--3--1--1--1--1--1--1--1--1--
E--------------------------------------------------------------------------


G--------------------------------------------------------------------------
D--------------------------------------------------------------------------
A--3--3--3--3--3--3--3--3--1--1--1--1--1--1--1--1--3--3--3--3--3--3--3--3--
E--------------------------------------------------------------------------

  (4:16)Chorus
G--------------------------------------------------------------------------
D--------------3--3--3--3--------------------------------------------------
A--5--5--5--5--------------3--3--3--3--0--0--0--0--1--1--1--1--3--3--3--3--
E--------------------------------------------------------------------------


G---------------------------------------------------------------------------
D---------------------------------------3--3--3--3--------------------------
A--5--5--5--5--5--5--5-5-5--5--5--5--5--------------3--3--3--3--0--0--0--0--
E---------------------------------------------------------------------------


G-----------------------------------------------------------------------------
D-----------------------------------------------------------------3--3--3--3--
A--1--1--1--1--3--3--3--3--5--5--5-5-5--5--5--5-5-5---5--5--5--5--------------
E-----------------------------------------------------------------------------


G---------------------------------------------------------------------------
D---------------------------------------------------------------------------
A--3--3--3--3--0--0--0--0--1--1--1--1--3--3--3--3--5--5--5--5--5--5--5-5-5--
E---------------------------------------------------------------------------


G--------------------------------------------------------------------------
D--------------3--3--3--3--------------------------------------------------
A--5--5--5--5--------------3--3--3--3--0--0--0--0--1--1--1--1--3--3--3--3--
E--------------------------------------------------------------------------

  (4:52)
G-------------------------------------------------------------------------------
D-------------------------------------------------------------------------------
A--5--5--5--5-5-3--3--3--3-3-1--1--1--1--1--1--1--1--5--5--5--5-5-3--3--3--3-3--
E-------------------------------------------------------------------------------

                             (5:02) Outro
G--------------------------|---------------------------------------------------
D--------------------------|---------------------------------------------------
A--1--1--1--1--1--1--1--1--|--5-----3-----1-----5-----3-----1-----5-----3-----1
E--------------------------|---------------------------------------------------
                            Very slow, as first part.
                   
            Last note at 5:20
G----------------------------|
D----------------------------|
A--3-------0-------5---------|
E----------------------------|


Easiest Iron Maiden song I ever played. Notes in the slow parts are same as 
those in faster. No improvisation, nothing. Just the fastest part, in the main 
guitar solo is somewhat harder to play. This should be very correct although 
it's my first attempt to tab it.
  development and support by
dmitry ivanov