rock
 
|tablatures   |lyrics   |discussion forums   |more tabs @ XGuitar.com

Iron Maiden tabs

Charlotte The Harlot bass tab

Standard Tuning

G--14--12-11---------------12h14-14--12-11--------------
D------------14-12----12h14----------------14-12-14-----
A------------------12-------------------------------12--
E-------------------------------------------------------



G--14--12-11-----------------|-------------------------------------
D------------14-12-14----14\-|--7--5-4-----------/77--5-4----------
A---------------------12-----|---------7-5---5h7----------7---3----
E----------------------------|-------------5----------------5---5--




G---------------------------------------------------7/9---------7/9-------||
D--7--5-4----------7--5-4-5-7--5-4-5-7--5-4-7-5-4--------5-----------5----||
A---------7---3-----------------------------------7--------5--7--------5--||
E-----------5---5---------------------------------------------------------||





G------------------------------------------|------|---------------7-------
D------------5-5-----------------5-5-------|------|--------5-7-9----9-7-5-
A--77-5-7-7-------5--5-77-5-7-7--------5-5-|-%...-|-77-5-7----------------
E----------------5--5----------------5-----|------|-----------------------





G----------------------------------------|---|
D------------5-5-7-----------------------|---|
A--77-5-7-7--------5---55-3-5-5-------7--|-%-|
E-------------------------------7-5-3----|---|




G----------------------------------------------------------------------||
D---------5-5----------5-7---------7-9-7-5--------5-5------975--5-7-5--||
A--7-7--7-----0-5-5--7------7-7--7---------7-7--7-----0-5-----7--------||
E----------------------------------------------------------------------||





G-----------------------------------------------9-/14-12-11-12-11-9\---------
D------------9-7-5-4--------------------------9-----------------------10--10-
A--777777777---------7-5--3--3----3-3-2-2/-7---------------------------------
E-------------------------------3--------------------------------------------




G--12-11-9------------------------------------------------9-
D----------10-9-----------------------------------------9---
A--------------------------7-7---5--3--3----3-3-2-2/-7------
E----------------3--2--0-------5----------3-----------------





G--11-12-14-12-11-12--12-11-12-------------------------------------
D------------------------------10--10-----10-12-10-12-9------------
A--------------------------------------10---------------10-9-10-7--
E------------------------------------------------------------------




G---------------------------------------------------------------------------
D--------------------------------------7----7-7-5-4-5-------------------5---
A----7-7-7----5--3--3----3-3-2-2-----7----7------------7------7-7-5---5---7-
E--0--------5----------3----------5-----------------------0--0------7-------





G-------------------------------------9--14-12-11-12--11-12--------
D-----------------------------------9-----------------------10--10-
A----------5-5--3--3----3-3-2-2/-7---------------------------------
E--0---0-3------------3--------------------------------------------





G--12-11-9--------------------------------------------------------
D----------10-9-------------------------------------------------7-
A---------------10-9-10-9-7------7-7---5--3--3----3-3-2-2-----7---
E----------------------------0--0----5----------3----------5------





G--------------------------------------------------------------------|
D----7-7-5-4-5-------------------5-----------------------------------|
A--7------------7------7-7-5---5---7-------7-5----5--3--3----3-3-2-2-|
E------------------0--0------7--------0--00-----5----------3---------|






G-------------------|------------|---------------------------||
D-------------------|------------|--------5-------------5----||
A--7777777777777-5--|-%...-------|-7--\-----5--7--\-/7----5--||
E-------------------|------------|-0-----------0-------------||

:



G--14--12-11-12-14--12-11-12-14--12-11-----------------||
D--------------------------------------12-11-----------||
A--------------------------------------------12-11\-7--||
E------------------------------------------------------||
  development and support by
dmitry ivanov