rock
 
|tablatures   |lyrics   |discussion forums   |more tabs @ XGuitar.com

Iron Maiden tabs

Chains Of Misery bass tab

IRON MAIDEN
CHAINS OF MISERY
BASS TAB
TABBED BY ENDEMICBASS666


  intro:
					(growin' up)
G------------------------------------------------------------|
D------------------------------------------------------------|
A------------------------------------------------------------|
E--0-0-0--0-0-0--0-0-0--0-0-0--0-0-0--0-0-0--0-0-0--0-0-0----|

  riff:

G------------------------------------------------------------------------|
D------------------------------------------------------------------------|
A--------2--3-----7--5------5-4------3--2------2--3----7--5----77777777/-|
E--0-0---------0--------0---------0--------------------------------------|

G-----------------------------------------------------------|
D----------------------------------------------------5------|
A--------2--3-----7--5-----5-4-----3--2-------2--3------5---|
E--0-0---------0--------0-------0---------------------------|


verse:

G:--------------------------------------------------|
D:--9-----------------------------------------------|
A:--7-7-7-7-----7-5-5-5-5------5-4--4-----4-4--3----| X2
E:-----------0---------------0----------0-----------|

pre- chorus:

G-------------------------------------------------------------------------------|
D-------------------------------------------------------------------------------|
A--2-2-2-2-2-2-2-2--3-3-3-3-3-3-3-3--4-4-4-4-4-4-4-4--5-5-5-5-5-5-5-5-6-6-6-6---|
E-------------------------------------------------------------------------------|


chorus:

G---------------------------------------------------------------|
D---------------------------------------------------------------|
A------2--2/3--3---3/7-5--5--5/4--4--4/3---2-3-2--7-7---3-2-3---| X2
E--0-0----------------------------------------------------------|



post chorus riff:

G-------9-------9--7-------7-6--------------------|
D-------9-------9--7-------7-6--------------------|
A-------7-------7--5-------5-4------77777777/-----|
E-000------000--------000-------000---------------|


repeat verse part

repeat pre- chorus part

repeat chorus part (X2)


then

slow musical interlude:

G--7------------------3------------------4-----------5------------|
D--7------------------3------------------4-----------5------------|
A--5-5-5-5-5-5-5-5----1-1-1-1-1-1-1-1----2-2-2-2-----3-3-3-3------| X4
E-----------------------------------------------------------------|



riff under guitar solo:

G--7------------9--10------------3--5-------------3------5---|
D--7------------9--10------------3--5-------------3--3---5---|
A--5-5-5-5-5----7--8--8-8-8-8----1--3-3-3-3-3-----1--3---3---| x3
E----------------------------------------------------1-------|
(but the last time)
G---7-----------9--10-------10--2-------2---3-----3--5---------|
D---7-----------9--10-------10--2-------2---3-----3--5---------|
A---5--5-5-5-5--7--8--8-8-8-8---0--0-0--0---1-1-1-1--3-3-3-3---|
E--------------------------------------------------------------|


repeat chorus part (x2)


ending:

G------------------------------------9------|
D------------------------------------9------|
A----j-u-s-t----i-m-p-r-o-v-i-s-e----7/-----|
E-------------------------------------------|


end.


TABBED BY ENDEMICBASS666

UP THE IRONS ! ! !
  development and support by
dmitry ivanov