rock
 
|tablatures   |lyrics   |discussion forums   |more tabs @ XGuitar.com

Iron Maiden tabs

Can I Play With Madness guitar tab

Transcribed by Jussi Ylonen ( jussi.ylonen.lukio96@juankoski.fi )

All textual notes refer to the tab ABOVE it. Any comments, suggestions, 
or errors refering to the tab below that should be brought to my attention, 
please e-mail me.


  Can I play with Madness

By Iron Maiden from album Seventh son of a Seventh son
(Smith/Dickinson/Harris)



  intro
e:-------------------------------------------------3-------------------------|
B:------3------------------------------1-----------3-------------------------|
G:------2------------------------------0-----------0-------------------------|
D:------0------------------------------2-----------2-------------------------|
A:-------------------------------------3-----------3-------------------------|
E:---------------------------------------------------------------------------|
|    
e:---------------------------------------------------------------------------| 
B:---------------------------------------------------------------------------|
G:---------------------------------------------------------------------------|
D:------0--0--0--0--0--0--0--0---------0--0--0--0--0--0--0--0----------------|
A:---------------------------------------------------------------------------|
E:---------------------------------------------------------------------------|



                                        riff1
e:--3--------------------------------------------------------------------------|
B:--3-------------------------------------3------------------------------------|
G:--0-------------------------------------2------------------------------------|
D:--0-------------------------------------0------------------------------------|
A:--2--------------------------------------------------------------------------|
E:--3--------------------------------------------------------------------------|

e:---------------------------------------------------------------------------|
B:---------------------------------------------------------------------------|
G:---------------------------------------------------------------------------|
D:0--0--0--0--0--0--0--0----------------0--0--0--0--0--0--0--0---------------|
A:---------------------------------------------------------------------------|
E:---------------------------------------------------------------------------|




e:-3-------------------------------------3-----------------------------------|
B:-2-------------------------------------3-----------------------------------|
G:-0-------------------------------------0-----------------------------------|
D:-2-------------------------------------0-----------------------------------|
A:-3-------------------------------------2-----------------------------------|
E:---------------------------------------3-----------------------------------|

e:---------------------------------------------------------------------------|
B:---------------------------------------------------------------------------|
G:---------------------------------------------------------------------------|
D:-0--0--0--0--0--0--0--0----------------0--0--0--0--0--0--0--0--------------|
A:---------------------------------------------------------------------------|
E:---------------------------------------------------------------------------|



                                             Chorus first and third time
e:--3--3--2----3--3--2----2--3-----------------------------------------------|
B:--3--3--3----3--3--3----3--3-----------------------------------------------|
G:--2--2--2----2--2--2----2--2-----------------------------------------------|
D:--0--0--0----0--0--0----0--0---------------4--4--4--4--4--4-----------5----|
A:-------------------------------------------2--2--2--2--2--2--5--5-----5----|
E:-------------------------------------------------------------3--3-----3----|

e:---------------------------------------------------------------------------|
B:---------------------------------------------------------------------------|
G:---------------------------------------------------------------------------|
D:--0--0--0--0--0--0--0--0---------------------------------------------------|
A:---------------------------------------------------------------------------|
E:---------------------------------------------------------------------------|



                                          second time
e:-------------------------------------------------------------0----------0--|
B:----3--------------------------------------------------------0----------0--|
G:----2-----2--------3--2--------------------------------------2----------1--|
D:----0-----2-----0--------5--2-----------4--4--4--4-----------2----------2--|
A:----------0--------------------4--------2--2--2--2--5--5-----2----------2--|
E:----------------------------------------------------3--3-----0----------0--|



                                            Third time finish  (riffA)
e:---------------------------------------------------------------------------|
B:------------------------------------------3------3------3------------------|
G:-------------2--4--2----------------------2--2---2--2---2--2---------------|
D:----2--4--5-------------------------------0--2---0--2---0--2---------------|
A:---------------------------------------------0------0------0---------------|
E:---------------------------------------------------------------------------|



       Bridgeriff1        1st          2nd    Bridge riff2       1st        2nd
e:----------------------------------------------------------------------------|---|
B:----------------------------------------------------------------------------|---|
G:----------------------------------------------------------------------------|---|
D:--------------------------------------------4/5--5--5--5/4/0---3----------3-|--5|
A:-----5/7--7--7--7/5-------5----------5---5---------------------1----------1-|--3|
E:---------------------7----3----------3---7----------------------------------|---|  

Solo 

  E5            G5                 E5      G5         A5   E5          G5
e:---------------------------------------------------------------------------|
B:---------20------------------20--b(22----22-----Gliss----------------------|
G:19-b(21-----19--b(21----16-------------------------------------------------|
D:-----------------------------------------------------7----7b(9)--5-7-7-----|
A:---------------------------------------------------------------------------|
E:---------------------------------------------------------------------------|




          E5                                  G5           A5
e:---------------------------------------------------------------------------|
B:-----------------------------------------15-15b(17)~----Gliss-down---------|
G:--Gliss-----12-14-14b(16)-r14--12-14s12------------------------------------|
D:--------14-----------------------------------------------------------------|
A:---------------------------------------------------------------------------|
E:---------------------------------------------------------------------------|





e:---------------------------------------------------------------------------|
B:-------------------------------------------------------------------tremolob|
G:---------------15--17-----18-(17)-15-17-17b(18)-15-------------3---slow-dow|
D:-5--5------/17-------------------------------------------5--5--3---ward-ben|
A:-5--5----------------------------------------------------5--5--1-----------|
E:-3--3----------------------------------------------------3--3--------------|


                           
                           

e:-------------------------|
B:ar-----------------------|
G:n------------------------|
D:d---5-5----17------------|
A:----5-5----17--pick-slide|
E:----3-3------------------|





Song structure:

Intro 2x
Riff1 3x
Riff1 3bars plus riffA
Chorus
Riff1 3x
riff1 3bars plus riffA
Chorus
Bridgeriff 1
Bridge riff 2
Solo
Chorus


Tabbed by Jussi Ylönen 
(jussi.ylonen.lukio96@juankoski.fi)
  development and support by
dmitry ivanov