rock
 
|tablatures   |lyrics   |discussion forums   |more tabs @ XGuitar.com

Iron Maiden tabs

Can I Play With Madness bass tab

		Can I Play With Madness (Smith-Dickinson-Harris)
		Transcribed by Vinicius Neves (eneves@sti.com.br)
		ONLY BASS TABS - www.winbr.com/basstabs/index.html


|--------------------------------|--------------------------------|
|--------------------------------|--------------------------------|
|--------------------------------|--------------------------------|
|--------------------------------|--------------------------------|

|--------------------------------|--------------------------------|
|0-0-0-0-0-0-0-0-0-0-0-0-0-0-0-0-|--------------------------------|
|--------------------------------|3-3-3-3-3-3-3-3-3-3-3-3-3-3-3-3-|
|--------------------------------|--------------------------------|

|--------------------------------|--------------------------------|
|--------------------------------|----0---0---0---0---0---0---0---|
|--------------------------------|--------------------------------|
|3-3-3-3-3-3-3-3-3-3-3-3-3-3-3-3-|3-------------------------------|

|--------------------------------|--------------------------------|
|0-0-0-0-0-0-0-0-0-0-0-0-0-0-0-0-|--------------------------------|
|--------------------------------|3-3-3-3-3-3-3-3-3-3-3-3-3-3-3-3-|
|--------------------------------|--------------------------------|

|--------------------------------|--------------------------------|
|--------------------------------|----0---0---0---0---0---0---0---|
|--------------------------------|--------------------------------|
|3-3-3-3-3-3-3-3-3-3-3-3-3-3-3-3-|3-------------------------------|

|--------------------------------|--------------------------------|
|0-------0-0-0-0-0-0-0-0-0---0---|--------------------------------|
|--------------------------------|3-------3-3-3-3-3-3-3-3-3---3---|
|--------------------------------|--------------------------------|

|--------------------------------|--------------------------------|
|--------------------------------|0---0---0---0---0---0---0---0---|
|--------------------------------|--------------------------------|
|3-------3-3-3-3-3-3-3-3-3---3---|--------------------------------|

|--------------------------------|--------------------------------|
|0-------0-0-0-0-0-0-0-0-0---0---|--------------------------------|
|--------------------------------|3-------3-3-3-3-3-3-3-3-3---3---|
|--------------------------------|--------------------------------|

|--------------------------------|--------------------------------|
|--------------------------------|0---0---0---0---0---0---0---0---|
|--------------------------------|--------------------------------|
|3-------3-3-3-3-3-3-3-3-3---3---|--------------------------------|

|--------------------------------|--------------------------------|
|0-------0-0-0-0-0-0-0-0-0---0---|--------------------------------|
|--------------------------------|3-------3-3-3-3-3-3-3-3-3---3---|
|--------------------------------|--------------------------------|

|--------------------------------|--------------------------------|
|--------------------------------|0---0---0---0---0---0---0---0---|
|--------------------------------|--------------------------------|
|3-------3-3-3-3-3-3-3-3-3---3---|--------------------------------|

|--------------------------------|--------------------------------|
|0-------0-0-0-0-0-0-0-0-0---0---|--------------------------------|
|--------------------------------|3-------3-3-3-3-3-3-3-3-3---3---|
|--------------------------------|--------------------------------|

|--------------------------------|--------------------------------|
|--------------------------------|0-----------------------0-------|
|--------------------------------|------------0-------------------|   
|3-------3-3-3-3-3-3-3-3-3---3---|--------------------------------|

|--------------------------------|--------------------------------|
|----------------0---------------|--------------------------------|
|----0-------------------0-------|2-------2-------2---------------|
|--------------------------------|--------------------0---2---3---|

|--------------------------------|--------------------------------|
|------------------------0---0---|----0---0-------0-------0-------|
|--------------------------------|----------------------------0---|
|----3---3-------3---------------|--------------------------------|

|--------------------------------|--------------------------------|
|--------0-----------------------|--------------------------------|
|------------4---2---0-------2---|--------2-------2---------------|
|------------------------2-------|--------------------0---2---3---|

|--------------------------------|--------------------------------|
|--------------------------------|--------------------------------|
|----------------------------0---|----------------0---------------|
|----3---3-------3-------0-------|--------------------------------|

|--------------------------------|--------------------------------|
|--------------------------------|--------------------------------|
|2---------------0---2---0---2---|--------2-------2---------------|
|----0---2---3-------------------|--------------------0---2---3---|

|--------------------------------|--------------------------------|
|------------------------0---0---|----0---0-------0-------0-------|
|--------------------------------|----------------------------0---|
|----3---3-------3---------------|--------------------------------|

|--------------------------------|--------------------------------|
|--------0-----------------------|--------------------------------|
|------------4---2---0-------2---|--------2-------2---------------|
|------------------------2-------|--------------------0---2---3---|

|--------------------------------|--------------------------------|
|--------------------0---0-------|0-----------------------0-------|
|----------------------------0---|------------0-------------------|
|----3---3-------3---------------|--------------------------------|

|--------------------------------|--------------------------------|
|----------------0---------------|0-0-0-0-0-0-0-0-0-0-0-0-0-0-0-0-|
|----0-------------------0-------|--------------------------------|
|--------------------------------|--------------------------------|

|--------------------------------|--------------------------------|
|--------------------------------|--------------------------------|
|3-3-3-3-3-3-3-3-3-3-3-3-3-3-3-3-|--------------------------------|
|--------------------------------|3-3-3-3-3-3-3-3-3-3-3-3-3-3-3-3-|

|--------------------------------|--------------------------------|
|----0---0---0---0---0---0---0---|0-0-0-0-0-0-0-0-0-0-0-0-0-0-0-0-|
|--------------------------------|--------------------------------|
|3-------------------------------|--------------------------------|

|--------------------------------|--------------------------------|
|--------------------------------|--------------------------------|
|3-3-3-3-3-3-3-3-3-3-3-3-3-3-3-3-|--------------------------------|
|--------------------------------|3-3-3-3-3-3-3-3-3-3-3-3-3-3-3-3-|

|--------------------------------|--------------------------------|
|----0---0---0---0---0---0---0---|0-------0-0-0-0-0-0-0-0-0---0---|
|--------------------------------|--------------------------------|
|3-------------------------------|--------------------------------|

|--------------------------------|--------------------------------|
|--------------------------------|--------------------------------|
|3-------3-3-3-3-3-3-3-3-3---3---|--------------------------------|
|--------------------------------|3-------3-3-3-3-3-3-3-3-3---3---|

|--------------------------------|--------------------------------|
|0---0---0---0---0---0---0---0---|0-------0-0-0-0-0-0-0-0-0---0---|
|--------------------------------|--------------------------------|
|--------------------------------|--------------------------------|

|--------------------------------|--------------------------------|
|--------------------------------|--------------------------------|
|3-------3-3-3-3-3-3-3-3-3---3---|--------------------------------|
|--------------------------------|3-------3-3-3-3-3-3-3-3-3---3---|

|--------------------------------|--------------------------------|
|0---0---0---0---0---0---0---0---|0-------0-0-0-0-0-0-0-0-0---0---|
|--------------------------------|--------------------------------|
|--------------------------------|--------------------------------|

|--------------------------------|--------------------------------|
|--------------------------------|--------------------------------|
|3-------3-3-3-3-3-3-3-3-3---3---|--------------------------------|
|--------------------------------|3-------3-3-3-3-3-3-3-3-3---3---|

|--------------------------------|--------------------------------|
|0---0---0---0---0---0---0---0---|0-------0-0-0-0-0-0-0-0-0---0---|
|--------------------------------|--------------------------------|
|--------------------------------|--------------------------------|

|--------------------------------|--------------------------------|
|--------------------------------|--------------------------------|
|3-------3-3-3-3-3-3-3-3-3---3---|--------------------------------|
|--------------------------------|3-------3-3-3-3-3-3-3-3-3---3---|

|--------------------------------|--------------------------------|
|0-----------------------0-------|----------------0---------------|
|------------0-------------------|----0-------------------0-------|
|--------------------------------|--------------------------------|

|--------------------------------|--------------------------------|
|--------------------------------|------------------------0---0---|
|2-------2-------2---------------|--------------------------------|
|--------------------0---2---3---|----3---3-------3---------------|

|--------------------------------|--------------------------------|
|----0---0-------0-------0-------|--------0-----------------------|
|----------------------------0---|------------4---2---0-------2---|
|--------------------------------|------------------------2-------|

|--------------------------------|--------------------------------|
|--------------------------------|--------------------------------|
|--------2-------2---------------|----------------------------0---|
|--------------------0---2---3---|----3---3-------3-------0-------|

|--------------------------------|--------------------------------|
|--------------------------------|--------------------------------|
|----------------0---------------|2---------------0---2---0---2---|
|--------------------------------|----0---2---3-------------------|

|--------------------------------|--------------------------------|
|--------------------------------|------------------------0---0---|
|--------2-------2---------------|--------------------------------|
|--------------------0---2---3---|----3---3-------3---------------|

|--------------------------------|--------------------------------|
|----0---0-------0-------0-------|--------0-----------------------|
|----------------------------0---|------------4---2---0-------2---|
|--------------------------------|------------------------2-------|

|--------------------------------|--------------------------------|
|--------------------------------|--------------------0---0-------|
|--------2-------2---------------|----------------------------0---|
|--------------------0---2---3---|----3---3-------3---------------|

|--------------------------------|--------------------------------|
|0-----------------------0-------|----------------0---------------|
|------------0-------------------|----0-------------------0-------|
|--------------------------------|--------------------------------|

|--------------------------------|--------------------------------|
|--------------------0-----------|--------------------------------|
|------------------------2-------|--------------------------------|
|0-------0---0---0-----------3---|--------------------------------|

|--------------------------------|--------------------------------|
|--------------------0-----------|--------------------------------|
|------------------------2-------|------------0-------------------|
|0-------0---0---0-----------3---|--------------------------------|

|--------------------------------|--------------------------------|
|--------------------0-----------|--------------------------------|
|------------------------2-------|--------------------------------|
|0-------0---0---0-----------3---|--------------------------------|

|--------------------------------|--------------------------------|
|--------------------0-----------|--------------------------------|
|------------------------2-------|------------0-------------------|
|0-------0---0---0-----------3---|--------------------------------|

|--------------------------------|--------------------------------|
|--------------------------------|--------------------------------|
|------------------------0---1---|--------------------------------|
|3-------3---3---3---2-----------|--------------------------------|

|--------------------------------|--------------------------------|
|--------------------------------|--------------------------------|
|------------------------0---1---|------------3-------------------|
|3-------3---3---3---2-----------|--------------------------------|

|--------------------------------|--------------------------------|
|--------------------------------|--------------------------------|
|------------------------0---1---|--------------------------------|
|3-------3---3---3---2-----------|--------------------------------|

|--------------------------------|--------------------------------|
|--------------------------------|--------------------------------|
|------------------------0---1---|------------3-------------------|
|3-------3---3---3---2-----------|--------------------------------|

|--------------------------------|--------------------------------|
|--------------------0-----------|--------------------------------|
|------------------------2-------|--------------------------------|
|0-------0---0---0-----------3---|--------------------------------|

|--------------------------------|--------------------------------|
|--------------------0-----------|--------------------------------|
|------------------------2-------|------------0-------------------|
|0-------0---0---0-----------3---|--------------------------------|

|--------------------------------|--------------------------------|
|--------------------0-----------|--------------------------------|
|------------------------2-------|--------------------------------|
|0-------0---0---0-----------3---|--------------------------------|

|--------------------------------|--------------------------------|
|--------------------0-----------|--------------------------------|
|------------------------2-------|------------0-------------------|
|0-------0---0---0-----------3---|--------------------------------|

|--------------------------------|--------------------------------|
|--------------------------------|--------------------------------|
|--------------------------------|--------------------------------|
|3-------3-----------------------|--------------------------------|

|--------------------------------|--------------------------------|
|--------------------------------|--------------------------------|
|--------------------------------|--------------------------------|
|3-------3-----------------------|--------------------------------|

|--------------------------------|--------------------------------|
|--------------------------------|--------------------------------|
|--------------------------------|--------------------------------|
|3-------3-----------------------|--------------------------------|

|--------------------------------|--------------------------------|
|0-----------------------0-------|----------------0---------------|
|------------0-------------------|----0-------------------0-------|
|--------------------------------|--------------------------------|

|--------------------------------|--------------------------------|
|--------------------------------|------------------------0---0---|
|--------------------------------|--------------------------------|
|----------------------------3---|----3---3-------3---------------|

|--------------------------------|--------------------------------|
|----0---0-------0-------0-------|--------0-----------------------|
|----------------------------0---|------------4---2---0-------2---|
|--------------------------------|------------------------2-------|

|--------------------------------|--------------------------------|
|--------------------------------|--------------------------------|
|--------2-------2---------------|----------------------------0---|
|--------------------0---2---3---|----3---3-------3-------0-------|

|--------------------------------|--------------------------------|
|--------------------------------|--------------------------------|
|----------------0---------------|2---------------0---2---0---2---|
|--------------------------------|----0---2---3-------------------|

|--------------------------------|--------------------------------|
|--------------------------------|------------------------0---0---|
|--------2-------2---------------|--------------------------------|
|--------------------0---2---3---|----3---3-------3---------------|

|--------------------------------|--------------------------------|
|----0---0-------0-------0-------|--------0-----------------------|
|----------------------------0---|------------4---2---0-------2---|
|--------------------------------|------------------------2-------|

|--------------------------------|--------------------------------|
|--------------------------------|--------------------0---0-------|
|--------2-------2---------------|----------------------------0---|
|--------------------0---2---3---|----3---3-------3---------------|

|--------------------------------|--------------------------------|
|0-----------------------0-------|----------------0---------------|
|------------0-------------------|----0-------------------0-------|
|--------------------------------|--------------------------------|



  development and support by
dmitry ivanov