rock
 
|tablatures   |lyrics   |discussion forums   |more tabs @ XGuitar.com

Iron Maiden tabs

Bring Your Daughter To The Slaughter bass tab

             Bring your Daughter...to the Slaughter (Dickinson)
             From "No prayer for the dying"
             Transcribed by Vinicius Neves (eneves@sti.com.br)
             ONLY BASS TABS - www.winbr.com/basstabs/index.html

Intro
|------------------|
|------------------|
|--5---5---5-------|
|----3---5---3--0--|

Verse
|-----------------------------------------------------------------------|
|-----------------------------------------------------------------------|
|-----------------------------------------------------------------------|
|--0-0-0-0-0-0-0-0-0-0-0-0-0-2-3-3-3-3-3-3-3-3-3-3-3-5-5-5-5-5-5-5-5-5--|

Chorus
|------------------------------------------------------------------------------------------------------------------|
|------------------------------------------------------------------------------------------------------------------|
|-----------------------------3-3-3-3-3-3-3-----------------4--5-5-5-5-5-5-5--------------------------------4-0----|
|--3-0-0-0-0-0---3-0-0-0-0-0----------------5-5-5-5-5-5-5-7-------------------5-5-5-5-5-5-5-3-0-0-0-3-0-0-0-----3--|

Bridge before Solo
|--------------------------|
|--------------------------|
|--------5-5--5---5---5----|
|--3-3----------3---5---3--|

Solo
|----------------------------------------------------------------|
|----------------------------------------------------------------|
|----------------3--3-3-3-3-3--0--0-0-0-0-0--5--5-5-5-5-5--------|
|--0--0-0-0-0-0---------------------------------------------3-3--|

Bridge after Solo
|-----------------------------------------------------------------------------------------------------|
|-----------------------------------------------------------------------------------------------------|
|-------------------------------3-3-3-3-3-3-3-3-3-3-5-5-5-5-5-5-5-5-5-5-------------------------------|
|--0-0-0-0-0-0-0-0-0-0-0-0-0-0-------------------------------------------0-0-0-0-0-0-0-0-0-0-0-0-0-0--|

|------------------------------------------------------------------------------------------------------------------|
|------------------------------------------------------------------------------------------------------------------|
|-----------------------------------0-0-0-0-0-0-0-0-0-0-0-0--3-3-3-3-3-3-3-5-5-5-5-5-5-5---------------------------|
|--0-0-0-0-0-0-0-3-3-3-3-3-3-3-3-3--------------------------------------------------------0-0-0-0-0-0-0-0-0-0-0-0--|
                                                       last time
|----------------------------------------------------|---------|
|----------------------------------------------------|--5-3----|
|----------------------------0-0-0-0-0-0-0-0-0-0-0-0-|------5--|
|--0-0-0-0-0-0-3-3-3-3-3-3-3-------------------------|---------|

Outro
|-------------------------------|
|-------------------------------|
|-------------------------------|
|--5-3--0-0-0-0-0-0----------0--|

Song Structure

Intro
Verse 4X
Chorus 2X
Verse 4X
Bridge before Solo
Solo 4X
Bridge after Solo
Chorus 3X
Outro


UP THE IRONS!!!!





  development and support by
dmitry ivanov