rock
 
|tablatures   |lyrics   |discussion forums   |more tabs @ XGuitar.com

Iron Maiden tabs

Brave New World bass tab

Iron Maiden - Brave New World
Basstab 

Intro(Dying swans, twisted wings...)
G:|--------|--------|--------------|
D:|--------|--------|--------------|
A:|-0--3---|--------|-0--3-------0-|
E:|------3-|-1--3-3-|------3-1-3---| <= play six times

Verse riff 1(wilderness...)
G:|---------------------------------------------------------------------------------|
D:|---------------------------------------------------------------------------------|
A:|-5-5-5-5-5-5-5-5-5-5-5-5-5-5-5-5-1-1-1-1-1-1-1-1-1-1-1-1-1-1-1-1-3-3-3-3-3-3-3-3-|
E:|---------------------------------------------------------------------------------|

G:|--------------------------------------------------|
D:|--------------------------------------------------|
A:|--3-3-3-3-3-3-3-3-5-5-5-5-5-5-5-5-5-5-5-5-5-5-5-5-|
E:|--------------------------------------------------| 

Verse riff 2(what you see...)
G:|---------------------------------------------------------------------------------|
D:|---------------------------------------------------------------------------------|
A:|-1-1-1-1-1-1-1-1-1-1-1-1-1-1-1-1-3-3-3-3-3-3-3-3-3-3-3-3-3-3-3-3-1-1-1-1-1-1-1-1-|
E:|---------------------------------------------------------------------------------|

G:|--------------------------------------------------|
D:|--------------------------------------------------|
A:|--1-1-1-1-1-1-1-1-5-5-5-5-5-5-5-5-5-5-5-5-5-5-5-5-|
E:|--------------------------------------------------|

Chorus(A brave New World...)
G:|--7------------------------3------------------------5-----------------------|
D:|--7------------------------3------------------------5-----------------------|
A:|--5-5-5-5-5-5-5-5-5-5-5-5--1-1-1-1-1-1-1-1-1-1-1-1--3-3-3-3-3-3-3-3-3-3-3-3-|
E:|----------------------------------------------------------------------------|

G:|--7------------------------7------------------------3-----------------------|
D:|--7------------------------7------------------------3-----------------------|
A:|--5-5-5-5-5-5-5-5-5-5-5-5--5-5-5-5-5-5-5-5-5-5-5-5--1-1-1-1-1-1-1-1-1-1-1-1-|
E:|----------------------------------------------------------------------------|

G:|---------------------------7-----------------------|
D:|--5------------------------7-----------------------|
A:|--5------------------------5-5-5-5-5-5-5-5-5-5-5-5-|
E:|--3-3-3-3-3-3-3-3-3-3-3-3--------------------------|   <= play the entire chorus 2 
times

Solo Riff 1
G:|---------------------------------------------------------------------------------|
D:|---------------------------------------------------------------------------------|
A:|-5-5-5-5-5-5-5-5-5-5-5-5-5-5-5-5-1-1-1-1-1-1-1-1-1-1-1-1-1-1-1-1-3-3-3-3-3-3-3-3-|
E:|---------------------------------------------------------------------------------|

G:|--------------------------------------------------|
D:|--------------------------------------------------|
A:|--3-3-3-3-3-3-3-3-5-5-5-5-5-5-5-5-5-5-5-5-5-5-5-5-|
E:|--------------------------------------------------|   <= play 2 times



Solo Riff 2
G:|---------------------------------------------------------------------------------|
D:|---------------------------------------------------------------------------------|
A:|-1-1-1-1-1-1-1-1-1-1-1-1-1-1-1-1-3-3-3-3-3-3-3-3-3-3-3-3-3-3-3-3-1-1-1-1-1-1-1-1-|
E:|---------------------------------------------------------------------------------|

G:|--------------------------------------------------|
D:|--------------------------------------------------|
A:|--1-1-1-1-1-1-1-1-5-5-5-5-5-5-5-5-5-5-5-5-5-5-5-5-|
E:|--------------------------------------------------|  <= play 2 times

Solo Riff 3
G:|---------------------------------------------------------------------------------|
D:|---------------------------------------------------------------------------------|
A:|-7-7-7-7-7-7-7-7-7-7-7-7-7-7-7-7-3-3-3-3-3-3-3-3-3-3-3-3-3-3-3-3-5-5-5-5-5-5-5-5-|
E:|---------------------------------------------------------------------------------|

G:|--------------------------------------------------|
D:|--------------------------------------------------|
A:|--5-5-5-5-5-5-5-5-7-7-7-7-7-7-7-7-7-7-7-7-7-7-7-7-|
E:|--------------------------------------------------|   <= play 2 times

Solo Riff 4
G:|-5-------------------------------5-------------------------------7---------------|
D:|-5-------------------------------5-------------------------------7---------------|
A:|-7-7-7-7-7-7-7-7-7-7-7-7-7-7-7-7-3-3-3-3-3-3-3-3-3-3-3-3-3-3-3-3-5-5-5-5-5-5-5-5-|
E:|---------------------------------------------------------------------------------|

G:|-----------------5-------------------------------5-----------5-------------------|
D:|-----------------5-------------------------------5-----------5-------------------|
A:|-5-5-5-5-5-5-5-5-7-7-7-7-7-7-7-7-7-7-7-7-7-7-7-7-7-7-7-7-7-3-3-3-3-3-3-3-3-3-3-3-|
E:|---------------------------------------------------------------------------------|

G:|------------7-------------------------------|
D:|------------7-------------------------------|
A:|--3-3-3-3-3-5-5-5-5-5-5-5-5-5-5-5-5-5-5-5-5-|
E:|--------------------------------------------|	<= Play 4 times



Order
Intro x 6
Verse Riff 1 x 2
Verse Riff 2 x 2
Chorus x 2
Verse Riff 1 x 2
Verse Riff 2 x 2
Chorus x 2
Solo Riff 1 x 2
Solo Riff 2 x 2
Solo Riff 3 x 2
Solo Riff 4 x 4
Chorus x 2
Intro x 1 and fade out

That's it! Brave New World by the greatest band in metal history, Iron Maiden!!!
I just lost my mind, and my dreams...
...or No...honestly I didn't!
  development and support by
dmitry ivanov