rock
 
|tablatures   |lyrics   |discussion forums   |more tabs @ XGuitar.com

Iron Maiden tabs

Blood Brothers bass tab

Iron Maiden
Blood Brothers
Brave New World
Tabbed by MattW

G---||------------------------------------------------------------------
D---||------------------------------------------------------------------
A---||-----2-----2-----5--------10-----10------12------------2-----2----
E---||--0-----3-----3-----3--8------8------10------10-----0-----3-------
                                                                        

    Intro                                                               
G-----------------------------------------------------------------------
D---------------5-----5-----7-------------------------------------------
A------5-----3-----3-----5-----------2-----2-----5--------10-----10-----
E---3-----3--------------------3--0-----3-----3-----3--8------8---------
                                                                        

                                                                        
G------------------------------------------------------------|----------
D------------------------------------------------------5-----|-----9----
A-------12------------2-----2-----5-----5--5-----5--3--------|--7-------
E---10------10-----0-----3-----3-----3--------5-----------3--|----------
                                                                        

                                 Chorus                                 
G---9-----9----------12------12-----------------------------------------
D------9---------12------12-------------10------10----------12----------
A------------10---------------------10------10----------12------12------
E--------------------------------8------------------10------------------
                                                                        

           Chorus - Strum Verse - Strum     Harmony Solo                
G-------|--------------|-----------------|---------------|--------9-----
D---12--|--9--5-----7--|--9--12----------|---------------|-----9--------
A-------|--7--3--5--5--|--7--10--10--12--|---/10---------|--7-----------
E-------|--------3-----|---------8---10--|--0-----8--10--|--------------
                                                                        

          Outro                                                         
G------9----------14------14----------12------12--|--------5-----5------
D---9---------14------14----------12------12------|-----5-----5---------
A---------12------------------10------------------|--3------------------
E-------------------------------------------------|---------------------
                                                                        

                                                                        
G---------7-----7--||---------------------------------------------------
D------7-----7-----||---------------------------------------------------
A---5--------------||---------------------------------------------------
E------------------||---------------------------------------------------
  development and support by
dmitry ivanov