rock
 
|tablatures   |lyrics   |discussion forums   |more tabs @ XGuitar.com

Iron Maiden tabs

Be Quick Or Be Dead bass tab

Be Quick or Be Dead by Iron Maiden
-Bass Tab-

From album "Fear Of The Dark"
Transcribed by André Baida from Brazil.
E-Mail: andrecp@bestway.com.br



After drums you play:                                                            
G-----------------------------------
D-----------------------------------
A-----------------------------------
E-3-333-3333-33-333--3-333-333-33/8-

Enter Vocals : Cover....

G----------------------------------------------
D--------------------------------------1-0-0---
A-----------------5-6------------1-3-3---------
E-333333333333333------3333333333--------------


G----------------------------------------------
D--------------------------------------1-0-0---
A-----------------5-6------------1-3-3---------
E-333333333333333------3333333333--------------

Bridge: 

G-------------------------------------------------
D-----------------------------------------1-0-1---
A-3333333333-11111-------3333333333-11111---------
E------------------11111--------------------------


G-------------------------------------------------
D-----------------------------------------1-0-1---
A-3333333333-11111-------3333333333-11111---------
E------------------11111--------------------------


Chorus:

G---------------------------
D---------------------------     ---->First 
A----------------6-6-5------     ---->Part
E--3--33--33--33-------6----
   
 
                                                
G---------------------------------------------
D---7-5--------5-3----------------------------    ---->Second
A-------6----------5------8-6--------6-6-5----    ---->Part
E-3---------3----------3------8---3--------6-- 


Bridge II(4X).
                                                       
G------------------------
D------------------------
A------------------------
E-1111111111-3333333333--

Bridge III.

G---------------------------------------------------------------
D---------------------------------------------------------------
A--1-----3-----1----------1-----3-----1-3-55555555--6666-8888---
E----1-1---3-3---1--3333----1-1---3-3---------------------------

Solo 1 (2X).
                 
G-----------------------------------------------
D-----------------------------------------------
A--------------------6-6------------------------
E-8-6-8-6-8-6-8-6-8------8-6-8-6-8-6-8-6-8--4-4-
                                 
Solo 2 (2X).

G--------------------------------------------------------
D--------------------------------------------------------
A------------------------8-8-----------------------------
E-10-8-10-8-10-8-10-8-10-----10-8-10-8-10-8-10-8-10--6-6-


End.
  development and support by
dmitry ivanov