rock
 
|tablatures   |lyrics   |discussion forums   |more tabs @ XGuitar.com

Iron Maiden tabs

Another Life bass tab

Iron Maiden - Another Life
Album - Killers
From: Marcelo Danemberg Marsili (mmarsili@uninet.com.br)

 Intro (0:16)
|---------------------------------------------------------------------------------
|-7-7-7-7-7-7-7-7-7-7-7-7-7-7-7-7-7-7-7-7-7-7-7-7-7-7-7-7-7-7-7-------------------
|---------------------------------------------------------------------------------
|---------------------------------------------------------------3-3-3-3-3-3-3-3-3-

 ----------------------------------------------------------7-5--------------------
 ------------7-7-7-7-7-7-7-7-7-7-7-7-7-7-7-7-7-7-7-7-7-7-7-----7-5-7-5------------
 ----------------------------------------------------------------------8-5--------
 3-3-3-3-3-3----------------------------------------------------------------3-3-3-

 ------------------|
 ------------------|
 ------------------|
 3-3-3-3-3-3-3-3-3-|

 Verse (2x)
|-----------------------------------------------7-5-------------------------------
|-7-7-7-7-7-7-7-7-7-7-7-7-7-7-7-7-7-7-7-7-7-7-7-----7-5-7-5-----------------------
|-----------------------------------------------------------8-5-------------------
|---------------------------------------------------------------3-3-3-3-3-3-3-3-3-

 ---------------------------------------------------------------------------| 
 -------------7-7-7-7-7-7-7-7-7-7-7-7-7-7-7-7-7-7-7-7-7-7-7-7-7-7-7-7-7-7-7-| 
 ---------------------------------------------------------------------------|  
 3-3-3-3-3-3----------------------------------------------------------------|
    
  Brigde    3x                      1x
|-------------------------|-------------------------| 
|-8-8-8-8-8-8-8-8-8-7-5-7-|-8-7-5-7--8-7-5----------| 
|-------------------------|----------------8-7-5--3-| 
|-------------------------|-------------------------|

  (1:06)
|---------------------------------------------------------------|
|-7-7-7-7-7-7-7-7-7-7-7-7-7-7-7-7-7-7-7-7-7-7-7-7-7-7-7-7-7-7-7-|
|---------------------------------------------------------------|
|---------------------------------------------------------------|

    Verse (2x)
|-----------------------------------------------7-5-------------------------------
|-7-7-7-7-7-7-7-7-7-7-7-7-7-7-7-7-7-7-7-7-7-7-7-----7-5-7-5-----------------------
|-----------------------------------------------------------8-5-------------------
|---------------------------------------------------------------3-3-3-3-3-3-3-3-3-

 ---------------------------------------------------------------------------| 
 -------------7-7-7-7-7-7-7-7-7-7-7-7-7-7-7-7-7-7-7-7-7-7-7-7-7-7-7-7-7-7-7-| 
 ---------------------------------------------------------------------------|  
 3-3-3-3-3-3----------------------------------------------------------------|

   Brigde    3x                      1x
|-------------------------|-------------------------| 
|-8-8-8-8-8-8-8-8-8-7-5-7-|-8-7-5-7--8-7-5----------| 
|-------------------------|----------------8-7-5--3-| 
|-------------------------|-------------------------|

 (1:52)
|----------------|--5-5--------------8-8-7-5------------------7-7-7-7-7-7-----7-7-
|----------------|------8-7-5----------------8-7-5--------5h7-------------5h7-----
|-3-----6-----5--|------------8-6-5----------------8--5-5-------------------------
|----------------|----------------------------------------------------------------

 7-7-7-7-7--5-5-------------8-8-7-5-----------------5-5---5-7---|-----------------
 ---------------8-7-5----------------8-7-5----8-7-8-----8-----6-|-----------------
 ---------------------8-6-5----------------8--------------------|-----------------
 ---------------------------------------------------------------|----------------- 

 Solo (2:13)
|---------------------------------------------------------------------------------
|-7-7-7-7-7-7-7-7-7-7-7-7-7-7-7-7-7-7-7-7-7-7-7-7-7-7-7-7-7-7-7-------------------
|---------------------------------------------------------------------------------
|---------------------------------------------------------------3-3-3-3-3-3-3-3-3-

 ----------------------------------------------------------7-5--------------------
 ------------7-7-7-7-7-7-7-7-7-7-7-7-7-7-7-7-7-7-7-7-7-7-7-----7-5-7-5------------
 ----------------------------------------------------------------------8-5--------
 3-3-3-3-3-3----------------------------------------------------------------3-3-3-

 ------------------|
 ------------------|
 ------------------|
 3-3-3-3-3-3-3-3-3-|


    Verse (2x)
|-----------------------------------------------7-5-------------------------------
|-7-7-7-7-7-7-7-7-7-7-7-7-7-7-7-7-7-7-7-7-7-7-7-----7-5-7-5-----------------------
|-----------------------------------------------------------8-5-------------------
|---------------------------------------------------------------3-3-3-3-3-3-3-3-3-

 ---------------------------------------------------------------------------| 
 -------------7-7-7-7-7-7-7-7-7-7-7-7-7-7-7-7-7-7-7-7-7-7-7-7-7-7-7-7-7-7-7-| 
 ---------------------------------------------------------------------------|  
 3-3-3-3-3-3----------------------------------------------------------------|

   Brigde    3x                      1x
|-------------------------|------------------------------------------------------| 
|-8-8-8-8-8-8-8-8-8-7-5-7-|-8-7-5-7--8-7-5---------------------------------------| 
|-------------------------|----------------8-7-5--3-3-3-3-3-...---------------.--| 
|-------------------------|-------------------------------------6-6-6-6-6...--5--|
  development and support by
dmitry ivanov