rock
 
|tablatures   |lyrics   |discussion forums   |more tabs @ XGuitar.com

Iron Maiden tabs

Alexander The Great bass tab

Song: Alexander The Great
 Band: Iron Maiden
 Album: Somewhere In Time
 Transcribed by: Amaury Espinal (powerslave25@hotmail.com)
 Date: 2/22/2004



    (0:14)Intro                                                             (0:28)
 G-|------9-----------------9-----------------9-----------------9-----------------7-------------
 D-|---9----9------------9----9------------9----9------------9----9------------7----7-----------
 A-|-7--------77777777-7--------77777777-7--------77777777-7--------77777777-5--------55555555--
 E-|--------------------------------------------------------------------------------------------

                               Play Intro x2 (0:14 to 1:05)    (1:06)       (1:14)
 G------7-----------------7-----------------7------------|----|------------------------------
 D---7----7------------7----7------------7----7----------|-X2-|------------------------------
 A-5--------55555555-5--------55555555-5--------55555555-|----|---------------3-rest---------
 E-------------------------------------------------------|----|-0-rest-0-rest--------0-rest--

                                (1:39)                          (1:43)               Play x 2 (1:39 to 1:55)
 G-----------------------------|---------------------------------------------------------------|----|-------
 D-----------------------------|---------------------------------------------------------------|-X2-|-------
 A---------------3-rest--------|-7-777-777-77777-7-777-777-77777-3-333-333-33333/777777\\222222-|----|-------
 E-0-rest-0-rest--------0-rest-|---------------------------------------------------------------|----|-------

   (1:56)"Near to the east...       (2:00)          (2:02) Play x 4 (1:56 to 2:29)
 G-|-----------------------------------------------------------------|----|-------
 D-|-----------------------------------------------------------------|-X4-|-------
 A-|-7-777-777-77777-7-777-777-77777-3-333-333-33333-----------------|----|-------
 E-|-------------------------------------------------7777777-2222222-|----|-------

   (2:30)Chorus"Alexander the great...                        Play Chorus x2 (2:30 to 2:46)
 G-|---------------------------------------------------------------|----|------------------
 D-|---------------------------------------------------------------|-X2-|------------------
 A-|-7-777-777-77777-5-555-555-55555-----------------333333-555555-|----|------------------
 E-|---------------------------------5-555-555-55555---------------|----|------------------

   (2:46)Riff1   Play x2(2:46 to 2:54)   (2:55)Riff2   Play x 2 (2:55 to 3:03)
 G-|-----------------------------|----|--|-----------------------------|----|--
 D-|-----------------------------|-X2-|--|-7-777-777-77777-3-333-55352-|-X2-|--
 A-|-7-777-777-77777-3-333-55352-|----|--|-----------------------------|----|--
 E-|-----------------------------|----|--|-----------------------------|----|--

   (3:03)"King Darius the third...                      Play x4 (3:03 to 3:36)
 G-|-----------------------------------------------------------------|----|---
 D-|-----------------------------------------------------------------|-X4-|---
 A-|-7-777-777-77777-7-777-777-77777-3-333-333-33333-----------------|----|---
 E-|-------------------------------------------------7777777-2222222-|----|---

   (3:37)Chorus"Alexander the great...               Play Chorus x2 (3:37 to 3:53)
 G-|---------------------------------------------------------------|----|---------
 D-|---------------------------------------------------------------|-X2-|---------
 A-|-7-777-777-77777-5-555-555-55555-----------------333333-555555-|----|---------
 E-|---------------------------------5-555-555-55555---------------|----|---------

 (3:53)   x7              (4:07)    (4:09)    x3              (4:15)    (4:16)    x3
 G---|--------------|----|---------------|--------------|----|---------------|-------------|----|--
 D---|--------------|-X7-|---------------|--------------|-X3-|---------------|-------------|-X3-|--
 A-22|-2222-2-2-222-|----|-2222-2-2------|--------------|----|-----------222-|2222-2-2-222-|----|--
 E---|--------------|----|-----------555-|-5555-5-5-555-|----|-5555-5-5------|-------------|----|--

 (4:22)     (4:24)    x3              (4:30)    (4:31)
 G---------------|--------------|----|---------------------------------------------------
 D---------------|--------------|-X3-|---------------------------------------------------
 A-2222-2-2--444-|-4444-4-4-444-|----|-4444-4-4--666-6666-6-6-666-6666-6-6-666-6666-6-6--
 E---------------|--------------|----|---------------------------------------------------

  (4:37)           (4:41)      (4:49) (4:52)
 G----------------------------------------------------------------------
 D----------------------------------------------------------------------
 A-666666666666-----2-7-r-2-7-r-3-r-5-00000000000000000000000000000000--
 E--------------0-r-----------------------------------------------------

   (4:59)Riff3             (5:02)                   (5:05)                  (5:09)  Play x4 (4:59 to 5:49)
 G-|-------------------------------------------------------------------------------------------|----|-----
 D-|-------------------------------------------------------------------------------------------|-X4-|-----
 A-|-------------------------33-333-3333-33-333-3333-------------------------------------------|----|-----
 E-|-55-555-5555-55-555-5555-------------------------33-333-3333-33-333-3333-77777777-22222222-|----|-----

    (5:50)Solo                                                              (6:00)         (6:02)    Play x 2 (5:50 to 6:17)
 G-|----------------------------------------------------------------------------------------.-------.-----|----|------------
 D-|----------------------------------------------------------------------------------------2-------2-----|-X2-|------------
 A-|-------------------------33-333-3333-33-333-3333-------------------------------------7----.....---...-|----|------------
 E-|-55-555-5555-55-555-5555-------------------------33-333-3333-33-333-3333-77-777-7777------55555---555-|----|------------

  (6:18)                                                                  (6:27)      (6:29)
 G-------------------------------------------------------------------------------------------------
 D-------------------------------------------------------------------------------------------------
 A-------------------------33-333-3333-33-333-3333-------------------------------------------------
 E-55-555-5555-55-555-5555-------------------------33-333-3333-33-333-3333-77-777-7777-2222222222--

    (6:31)Solo2             (6:34)                  (6:37)                  (6:40)  Play solo2 x3 (6:31 to 7:09)
 G-|------------------------------------------------------------------------------------------------|----|------
 D-|------------------------------------------------------------------------------------------------|-X3-|------
 A-|-77-777-7777-77-777-7777-33-333-3333-33-333-3333-------------------------55-555-5555-3333333-35-|----|------
 E-|-------------------------------------------------33-333-3333-33-333-3333------------------------|----|------

   (7:09)"A Phrygian king...        (7:13)          (7:15)  Play x2 (7:09 to 7:25)
 G-|-----------------------------------------------------------------|----|-------
 D-|-----------------------------------------------------------------|-X2-|-------
 A-|-7-777-777-77777-7-777-777-77777-5-555-555-55555-2-222-2222-3355-|----|-------
 E-|-----------------------------------------------------------------|----|-------

 (7:26)"Marching on"              (7:30)"Marching on"
 G------------------------------------------------------------------
 D------------5------------------------------5----------------------
 A-7-777-777-----5-555-555-55555--7-777-777-----5-555-555-55555555--
 E------------------------------------------------------------------

 (7:34)"The battle weary marching...
 G------------------------------------------------------------------
 D------------------------------------------------------------------
 A-7-777-777-77777-7-777-777-77777-5-555-555-55555-2-222-2222-3355--
 E------------------------------------------------------------------

   (7:42)Chorus:"Alexander the great...                 Play x2 (7:42 to 7:59)
 G-|---------------------------------------------------------------|----|-----
 D-|---------------------------------------------------------------|-X2-|-----
 A-|-7-777-777-77777-5-555-555-55555-----------------333333-555555-|----|-----
 E-|---------------------------------5-555-555-55555---------------|----|-----

 (8:00)Outro
 G----------------------------------------------------------------
 D----------------------------------------------------------------
 A-7-777-777-77777-7-777-777-77777-3-333-333-33333/777777\\222222--
 E----------------------------------------------------------------

 (8:08)                                             (8:16)              (8:21)
 G------------------------------------------------------------------------7/9-1212-10---------
 D--------------------------------------------------------------------------------------------
 A-7-777-777-77777-7-777-777-77777-3-333-333-33333/7--75----32--------------------------10\\7--
 E------------------------------------------------------87----32--3-2-0-----------------------


 Any comments or corrections, email me: powerslave25@hotmail.com
 Dedicada a todos los fans de Iron Maiden en la Republica Dominicana
 y en todo el mundo.
  development and support by
dmitry ivanov