rock
 
|tablatures   |lyrics   |discussion forums   |more tabs @ XGuitar.com

Iron Maiden tabs

Age Of Innocence guitar tab

Age of Innocence
Iron Maiden
Written by Steve Harris and Dave Murray
Tabbed by Rory McGuckin
This is my favorite song on the album and it rules
Sorry I only put up the first bits, I\'ll tab the rest later

       Clean
E----------------------------------------------------------------------------------------------
B----------------------------------------------------------------------------------------------
G----------------------------------------0----------------------------------------------0-----
D----------------2-------------4-------------4----------------4------------4---------------4
A---------2-------------2----------2-------------------3-------------3----------3-----------
E----0---------------------------------------------0------------------------------------------


E-----------------------------------------------------------------------------------------------
B-----------------------------------------------------------------------------------------------
G---------------2------------0------------2----0-----------------0---------------------0-----
D-----------------------------------------------------------------------------4----------------
A--------4------------4------------4----------------------3-----------3---------3----------4
E---0-----------------------------------------------0------------------------------------------


      Distorted
E------------------------------------------------------------------------------------------------
B---------------------12------8----8h10--------8------10------------8h10-----------------
G---9-------------------------------------------------------------------------------------------
D-----------------------------------------------------------------------------------------------
A------------------------------------------------------------------------------------------------
E------------------------------------------------------------------------------------------------

E------------------------------------------------------------------------------------------------
B---------10h12p10h8p7----7h8-------------------8h10p8p7h8-------------------------
G------------------------------------------------------------------------------------------------
D------------------------------------------------------------------------------------------------
A------------------------------------------------------------------------------------------------
E------------------------------------------------------------------------------------------------

E-------------------------------------------------------------------------------------------------
B------------------------12------8-----10h12p10p8h10--------8h10-----------------------
G----9-------------------------------------------------------------------------------------------
D------------------------------------------------------------------------------------------------
A------------------------------------------------------------------------------------------------
E------------------------------------------------------------------------------------------------

E--------10h12p10p8h10-----------8h10p8p7----7h8--------------------(8)-------------
B------------------------------------------------------------------------------------------------
G------------------------------------------------------------------------------------------------
D------------------------------------------------------------------------------------------------
A------------------------------------------------------------------------------------------------
E------------------------------------------------------------------------------------------------

 Listen to the song and you’ll get the timing right.                      Enjoy!
  development and support by
dmitry ivanov