rock
 
|tablatures   |lyrics   |discussion forums   |more tabs @ XGuitar.com

Iron Maiden tabs

2 A.M. guitar tab

NOTE: Esta tablatura esta en ingles para su uso y entendimiento mundial.

From: ahershco@ort.org.il
Date: Thu, 20 Mar 1997 
To: "Iron Maiden Chilean F.C" http://www.geocities.com/SunsetStrip/Towers/1553
Subject: TAB ("2 A.M." by Iron Maiden)

                                         _
|  |>    /\   |\|     |\/|   /|  |  |\  |_  |\|
|  | \  /__\  | |     |  |   \|  |  |/  |_  | |

Guitar tab 
Transcribed by Amir .H. ( ahershco@ort.org.il )

All textual notes refer to the tab ABOVE it. Any comments, suggestions, 
or errors refering to the tab below that should be brought to my attention, 
please e-mail me.
     


    2 A.M , Iron Maiden "X Factor" / Tabed By Amir .H.
           ----------------------------------------------------

  Intro : (Clean sound , Better with a Classic Guitar)
-]-----------0------------0----------0-------------------------------
-]-------1-0----------1-0--------1-0----------1-0--------------------
-]-----------------------------2-------------------------------------
-]----2-------------2--------0-------------2-------------------------
-]--0-------------3----------------------0---------------------------
-]-------------------------------------------------------------------
   First guitar plays this part of the Intro ...
   And after 2 times (I think) the second guitar comes in to play riff2&3.


  Play Riff2&3 with Dist+Reverb 

  Riff2 :

-]--3h5-3--------3h5-3----------3h5-3-------------------------------
-]--------5-3----------5-3------------5-3---5-----------------------
-]------------5------------5--------------5-------------------------
-]------------------------------------------------------------------
-]------------------------------------------------------------------
-]------------------------------------------------------------------

  Riff3 :  
  
-]--3h5-3--------3h5-3--------3h5-3---------------------------------
-]--------5-3----------5-3----------5-3---1-------------------------
-]------------5------------5------------5---------------------------
-]------------------------------------------------------------------
-]------------------------------------------------------------------
-]------------------------------------------------------------------


-]--------------------------------------------------------------
-]--------------------------------------------------------------
-]--------------------------------------------------------------
-]--------------------------------------------------------------
-]--------------------------------------------------------------
-]--------------------------------------------------------------


-]-----------------------------------------------------------------
-]------------------------------------------7----------------------
-]----------------------7-----7-------------7----------------------
-]--7-----7---3-----3---7-----7---5-----5---5----------------------
-]--7-----7---3-----3---5-xxx-5---5-----5--------------------------
-]--5-xxx-5---1-xxx-1-------------3-xxx-3--------------------------

  Here I am Again ...


-]-----------------------------------------------------------------
-]-------1-----------------------1-----------------------1---------
-]-----2---2------------5------2---2-----------0-----0---2---------
-]---2-------2--------2------2-------2-------4-----2-----2---------
-]-0-----------0--3-5------0-----------0---5-----3-------0---------
-]-----------------------------------------------------------------


  Hold On the Strings (Block them , To get the Correct Sound)
-]-----------------------------------------------------------------
-]-----------------------------------------------------------------
-]-----------------------------7----7----------------7-------------
-]----7----7------3----3-----7---7--7-------5--------7-------------
-]--7---7--7----3---3--3---5--------------5---5-h-7--5-------------
-]-5-----------1------------------------3--------------------------

  Life Seems so Pathetic ...

-]-----------------------------------------------------------------
-]------------------------------------------7----------------------
-]----------------------7-----7-------------7----------------------
-]--7-----7---3-----3---7-----7---5-----5---5----------------------
-]--7-----7---3-----3---5-xxx-5---5-----5--------------------------
-]--5-xxx-5---1-xxx-1-------------3-xxx-3--------------------------

  Here I am Again ...

  Now Riffs 1,2,3 Again !
 

   This part is changing from time to time , sometimes they play it
   2 times or less , hear the song and get it right!
  __________________
  |                |
-]-----------------------------------------------------------------
-]-12-11-12-11-12-11-----------9---12-11---------------------------
-]--------------------8--8-9-9-------------------------------------
-]-----------------------------------------------------------------
-]-----------------------------------------------------------------
-]-----------------------------------------------------------------

   _________________
   |               |
-]-----------------------------------------------------------------
-]-12-11-12-11-12-11-----------9---16-14---------------------------
-]--------------------8--8-9-9-------------------------------------
-]-----------------------------------------------------------------
-]-----------------------------------------------------------------
-]-----------------------------------------------------------------


  
  Now The solo is kinda hard , I know some of it but its better I won´t
  Tab it , You whould laugh about me but maybe one day I'll Put its in!
  But anyway , The whole song is here - Enjoy!!!!


  Any comments , Please Do send to me - ahershco@ort.org.il 


  " And Every Prayer We Pray At Night ,
    Has Somehow Lost Its Meaning        " - SavatagE "Dead Winter Dead "
  development and support by
dmitry ivanov